Mastodon - Shadows That Move Chords & Tabs

 

Shadows That Move Chords & Tabs

Mastodon Chords & Tabs

Version: 1 Type: Bass Tab

Shadows That Move Bass Tab

   
----------------------------------------------------------------------------
			     SONG NAME - Band Name
----------------------------------------------------------------------------

Tabbed By: Christ
e-mail: almontel@tampabay.rr.com

Tuning: DGCF

Intro/Main Riff
F|---------------------------------------------------|2x
C|---------------------------------------------------|
G|----2----32-----2----32-----2----32-----2----32----|
D|-023---02----023---02----023---02----023---02------|
[ Tab from: http://www.guitartabs.cc/tabs/m/mastodon/shadows_that_move_btab.html ]
Riff 2
F|-----------------------------|2x
C|-----------------------------|
G|-----------------------------|
D|-2-\-6--2-\-6--2-\-6--2-\-6--|

Main Riff 1x
Riff 2 2x

Riff 3
F|---------------------|8x
C|---------------------|
G|-3h5-----------------|
D|-----22-66-33-666/5--|

Main Riff 1x
Riff 2 2x

Riff 3
F|------------------------|4x
C|------------------------|
G|------7-3~--------6-2~--|
D|0-5-8-------0-5-7-------|

Main Riff 1/2x
Riff 3 4x
Riff 2 16x
Riff 3 'til end of song


| /  slide up
| \  slide down
| h  hammer-on
| p  pull-off
| ~  vibrato
| +  harmonic
| x  Mute note
============================================================================