Mastodon - Naked Burn Chords & Tabs

 

Naked Burn Chords & Tabs

Mastodon Chords & Tabs

Version: 1 Type: Tab

Naked Burn Tab

I think this is mostly right

Naked Burn  Intro All Downstrokes
  PM======================  ===========================
D--2-3-2-2-2-2-2-3-2-2-2-5  -7-8-7-7-7-7--7-8-7-7-7-10-|
A--0-0-0-4-0-5-0-0-0-4-0-0  -0-0-0-9-0-10-0-0-0-9-0-0--|
F-------------------------2x---------------------------|2x
C------------------------------------------------------|
G------------------------------------------------------|
D------------------------------------------------------|

Verse

D--------------------------------------------------------|
A--------------------------------------------------------|
F-----------------------------------------1st----2nd-----|
C--------------------------------------ending----ending--|
G--9/10-97--7/9--9--9--8----8--8--8------12-    -7-------|
D--7/8--75--5/7--7--7--7----7--7--7------10-    -5-------|

Pre Chorus
           PM=        PM===              PM===
D----------------------------------------------------------------|
A----------------------------------------------------------------|
F-------11-----9----9-------------------------1st----------------|
C--------x-----x----x-------------------------ending-------------|
G--------9-----7----7--------8--8--8--8------- 10-10-10-8--8--10-|
D--0---0---0-0---------0--0--6--6--6--6--0--0--8--8--8--6--6--8--|

2nd ending
D-------------------------|
A-------------------------|
F-------------------------|
C-------------------------|
G--14--14--14--12--12--14-|
D--12--12--12--10--10--12-|

Chorus
            PM==                PM===
D------------------------------------|
A------------------------------------|
F--12----12-----4times--11---11------|2times
C--xx----xx-------------x----x-------|
G--10----10-------------9----9-------|
D-----------0--0----------------0--0-|
[ Tab from: http://www.guitartabs.cc/tabs/m/mastodon/naked_burn_tab.html ]
Fill 1
D-------------------------------------|
A-------------------------------------|
F-------------------------------------|
C--------4--5--7--4--5-----9-----9----|
G--5--7-----------------7-----7-----7-|
D-------------------------------------|

Fill 2
D--------------------|
A--------------------|
F--7--5--4-----------|
C-----------7--5--4--|
G--------------------|
D--------------------|

Bridge
  Light Palm Mute Throughout
D-------------------------------------|
A-------------------------------------|
F-------------------------------------|2times
C-----9----10----12----9----10----12--|
G--10---10----10----10---10----10-----|
D-------------------------------------|

D--------------------------|
A--------------------------|
F------------5-----------5-|2times
C----7---8-------7---8-----|
G--5---5---5---5---5---5---|
D--------------------------|

D--------------------------------------------------------------------------|
A--------------------------------------------------------------------------|
F--------------------------------------------------------------------------|
C----2---3---5---2---3---5---2---3---5---2---3---5-------------------------|
G--4---4---4---4---4---4---1---1---1---1---1---1-----4---5---7---4---5---7-|
D--------------------------------------------------5---5---5---5---5---5---|

D---------------------|
A---------------------|
F---------------------|
C---------------------|4times
G--4--4--4--5------7--|
D--2--2--2--3------5--|

Then repeat the whole song again

Outro

D---------------------------------------|
A---------------------------------------|
F---------------------------------------|2times
C---------------------------------------|
G--4--4--4--5------7--4--4--4--9------7-|
D--2--2--2--3------5--2--2--2--7------5-|

D---------------------------------------|
A---------------------------------------|
F---------------------------------------|
C---------------------------------------|
G--5--3--2-----2--------2---------------|
D-----------5-----5--3-----5--3--2--0---|

Listen to song to hear how many times to do the outro
and at the very end hit a  C-------|
                           G--4--4-|
                           D--2--2-|

Tabbed by joseph merrick