Mastodon - March Of The Fire Ants Chords & Tabs

 

March Of The Fire Ants Chords & Tabs

Mastodon Chords & Tabs

Version: 1 Type: Bass Tab 0 ratings
1 star 2 stars 3 stars 4 stars 5 stars
comments

March Of The Fire Ants Bass Tab

   
Mastodon
March Of The Fire Ants
A G C F


||--------------|---------|---------|---|
||o-------------|---------|---------|---|
||o-------------|---------|---------|---|
||--0--3--1--0--|---------|---------|---|

|-------------|------------|------------|---------||
|-------------|------------|------------|--------o||
|-------------|------------|------------|--------o||
|-0--3--1--0--|-(0)--------|-(0)--------|-(0)-----||

                                                    4x
||--------------|-------------|-------------|-------||
||o-------------|-------------|-------------|------o||
||o-------------|-------------|-------------|------o||
||--0--3--1--0--|-(0)----0----|-(0)--0------|-(0)---||

|------------|
|------------|
|------------|
|-0--3--1----|

   Verse
                                                                       3x
||------------------|---------------|-----------------|----------------||
||o-----------------|---------------|-----------------|---------------o||
||o-1-1-1-1-1-1-1-2-|-(2)-----------|-1-1-1-1-1-1-1-2-|-(2)--------3--o||
||------------------|-----3---3--1--|-----------------|-----0---3------||

|-----------------|---------------|-----------------|
|-----------------|---------------|-----------------|
|-1-1-1-1-1-1-1-2-|-(2)-----------|-1-1-1-1-1-1-1-2-|
|-----------------|-----3---3--1--|-----------------|
[ Tab from: http://www.guitartabs.cc/tabs/m/mastodon/march_of_the_fire_ants_btab.html ]
   Chorus
                                                 4x
||-----------|----------|-----------|------------||
||o----------|----------|-----------|-----------o||
||o------7---|------8---|--------7--|---6----8--o||
||--0-0------|-0-0------|-0-0--0----|-0----0-----||

   Verse

   Chorus

   Interlude
                                                                       8x
||--------------------|---------------|---------------|----------------||
||o-------------------|---------------|---------------|---------------o||
||o-10----(10)-10--10-|-8----(8)-8--8-|-8----(8)-8--8-|-6----(6)-6--6-o||
||--------------------|---------------|---------------|----------------||

   Outro
||------------|-----------|-----------|---------|
||o-----------|-----------|-----------|---------|
||o-----------|-----------|-----------|---------|
||--0-0-3-5---|-0-0-3-5---|-3-5-6-5---|-3-5-6-5-|

|-----------|-------------|-----------|--------------|
|-----------|-------------|-----------|--------------|
|-5-5-------|-5-5---------|-5-5-------|-5-5----------|
|-----6-4---|-----6-4-6-4-|-----6-4---|-----6-4-6-4--|

                                                   4x
|-----------|-----------|-----------|--------------||
|-----------|-----------|-----------|-------------o||
|-----------|-----------|-----------|-------------o||
|-3-5-2-3---|-3-5-2-3---|-1-3-0-1---|-1-3-0-1------||

 Ending
|-------------|---------|---------|-----|
|-------------|---------|---------|-----|
|-------------|---------|---------|-----|
|-0--3--1--0--|---------|---------|-----|

|-------------|------------|------------|--------|
|-------------|------------|------------|--------|
|-------------|------------|------------|--------|
|-0--3--1--0--|-(0)--------|-(0)--------|-(0)----|

|---------------|
|---------------|
|---------------|
|-0--3--1--0----|
Comments