Mastodon - I Am Ahab Chords & Tabs

 

I Am Ahab Chords & Tabs

Mastodon Chords & Tabs

Version: 1 Type: Bass Tab

I Am Ahab Bass Tab

Mastodon - I Am Ahab tuning (low to high) - D G C F

Riff 1A x2
|-----------------------|---------------------|
|-----------------------|---------------------|
|-7-7777757-8--5--3--2--|-7-7777723-5----2----|
|-----------------------|---------------------|

Riff 2 x2
|-----------------------|-----------------------|
|-----------------------|-----------------------|
|-7p5p0-7p5p0-7p5-8--8--|-7p5p0-7p5p0-7p5-5--5--|
|-----------------------|-----------------------|

Riff 1B x2
|----------------|-----------------|
|----------------|-----------------|
|-7-7777757-8----|-7-7777723-5--2--|
|----------------|-----------------|

Riff 2 x2

Riff 3 x2
|-----------------|------------------------|
|-----------------|------------------------|
|-777555888-7--8--|-101010---101010-9--10--|
|-----------------|-------888--------------|

Riff 4 x4
|--------------|--------------|
|--------------|--------------|
|--------------|----777-------|
|-555000-6-5-6-|-888----8-7-8-|

Riff 5 x2
|---------------------------------|
|---------------------------------|
|---------------------------------|
|-6--5--3--2--3--6--2--3--0--3----|
[ Tab from: http://www.guitartabs.cc/tabs/m/mastodon/i_am_ahab_btab.html ]
Riff 6 x4
|---------------------------|---------------------------|
|--------7-7-7--------7-7-7-|---------------------------|
|---------------------------|-7p008p00-545-7p008p00-545-|
|-555555-------555555-------|---------------------------|

Riff 7 x2
|-------------------------------|---------------------------|
|-12p0011p00-878-12p0011p00-878-|-7p008p00-545-7p008p00-545-|
|-------------------------------|---------------------------|
|-------------------------------|---------------------------|

Riff 8 x2
|-------------|-------------|-------------|-------------|
|-------------|-------------|-------------|-------------|
|-5--6--3-----|-3--5--1-----|-1--3--0-----|-------------|
|-------------|-------------|-------------|-2--3--5--6--|

Riff 9 x2
|-----------------------------------------------------------------------------|
|---777-----777-----888-----888-----101010-----101010-----121212-----121212---|
|-0-------0-------0-------0-------0----------0----------0----------0----------|
|-----------------------------------------------------------------------------|

Riff 5 x4    Riff 2 x2

Fill 1 x1
|----------------------------------||
|----------------------------------||
|-7p5p0h7-7p5p0h7-7p5p0h7-7--5--7--||
|----------------------------------||