Mastodon - Blood And Thunder Chords & Tabs

 

Blood And Thunder Chords & Tabs

Mastodon Chords & Tabs

Version: 2 Type: Tab 0 ratings
1 star 2 stars 3 stars 4 stars 5 stars
comments

Blood And Thunder Tab

   
Band:  Mastodon
Album: Leviathan
Song:  Blood And Thunder

Copyright (c)  Relapse Records 2004
Version 1.0 - 4-8-2004

Transcribed By: Woutjinho
Email:          Woutjinho@hotmail.com


.  - palm mute           /  - slide up to
\  - slide down to       ~  - vibrato
h  - hammer on           b  - Bend
p  - pull off            Suffixes for bend
t  - tap                 f  - full bend    h - half bend
ph - pinched harmonic    q  - quarter bend t - tap bend
*  - see comment         ^  - Hold bend    r release bend
x  - Stuccatto           ~  - vibrato bend
,  - slight palm mute    () - ghost note, sustained note
"  - tremolo note        <> - Trill

Tunning A G C F A D



Intro:
Gtr 1:
                                        PM         PM
||------------------|-----------------|---------------|---------------------||
||o-----------------|-----------------|---------------|--------------------o||
||------------------|-----------------|---------------|---------------------||
||--5-----4-5-----4-|-5-----4-5-----4-|-5--5-----4-5--|-5-----6-6\-4\-2/-4--||
||o-3-x-x-2-3-x-x-2-|-3-x-x-2-3-x-x-2-|-3--3-x-x-2-3--|-3-x-x-4-4\-2\-0/-2-o||
||------------------|-----------------|---------------|---------------------||
[ Tab from: http://www.guitartabs.cc/tabs/m/mastodon/blood_and_thunder_tab_ver_2.html ]
Verse:
Gtr 1 + Gtr 2:
                                        PM         PM
                                                                             4x
||------------------|-----------------|---------------|----------------------||
||o-----------------|-----------------|---------------|---------------------o||
||------------------|-----------------|---------------|----------------------||
||--5-----4-5-----4-|-5-----4-5-----4-|-5--5-----4-5--|-5-----6-6\-4\-2/-4---||
||o-3-x-x-2-3-x-x-2-|-3-x-x-2-3-x-x-2-|-3--3-x-x-2-3--|-3-x-x-4-4\-2\-0/-2--o||
||------------------|-----------------|---------------|----------------------||

Chorus:
||----------------|-------------|---------------|-------------------||
||o---------------|-------------|---------------|------------------o||
||----------------|-------------|------------5--|-4--6--(6)---------||
||--4/--6--5/--7--|-6--8--7--9--|-8--7--(7)--3--|-2--4--(4)--2h4p2--||
||o-2/--4--3/--5--|-4--6--5--7--|-6--5--(5)-----|------------------o||
||----------------|-------------|---------------|-------------------||

Verse x4

Chorus x2

Solo:
|-----------|-----------|-----------|---------|
|-----------|-----------|-----------|---------|
|-----------|-----------|-----------|---------|
|-----------|-----------|-----------|---------|
|-----------|-----------|-----------|---------|
|-----------|-----------|-----------|---------|
|
|                         PM          PM
|-----------|-----------|-----------|---------|
|-----------|-----------|-----------|---------|
|-----------|-----------|-----------|---------|
|-2-2-------|-2-2-------|-2--2------|-2--2----|
|-0-0-------|-0-0-------|-0--0------|-0--0----|
|-----------|-----------|-----------|---------|


|-----------|-----------|-----------|---------|
|-----------|-----------|-----------|---------|
|-----------|-----------|-----------|---------|
|-----------|-----------|-----------|---------|
|-----------|-----------|-----------|---------|
|-----------|-----------|-----------|---------|
|
|                         PM          PM
|-----------|-----------|-----------|---------|
|-----------|-----------|-----------|---------|
|-----------|-----------|-----------|---------|
|-2-2-------|-2-2-------|-2--2------|-2--2----|
|-0-0-------|-0-0-------|-0--0------|-0--0----|
|-----------|-----------|-----------|---------|
Comments