Mastodon - Blood And Thunder Chords & Tabs

 

Blood And Thunder Chords & Tabs

Mastodon Chords & Tabs

Version: 1 Type: Bass Tab

Blood And Thunder Bass Tab

   
Mastodon - Blood And Thunder

tuning (low to high) - D G C F

Guitar Into(like 10 seconds)

Riff 1 x4
   sssssssssssssss   ssssssssssssssss
|------------------|------------------|
|4-----------------|------------------|
|4-7--57--57--57-5-|-7-8--57-8--88758-|
|---00--00--00--0--|--0-00--0-00------|

Riff 2 x2
  e.  se. se.  se. s   e.  s e.  se.  s e.  s    e.  sq   e.   s e.  s    e.  sh    q
|--------------------|-------------------------|------------------------|---------------|
|--------------------|-------------------------|------------------------|---------------|
|--------------------|-------------------------|------------------------|---------------|
|-0--/66--33--/99--6-|-6--/1212--99--/1515--12-|-12--99--(9)--/1515--12-|-12--99----12--|

Riff 1 x4

Riff 2 x2

Riff 3 x1
   ss H       ss H   E    E. E.  q      E. E.  q.
|----------|-----------|-------------|--------------|
|5---------|6----------|5------------|6-------------|
|8---------|8----------|8-0--0--(0)--|8-0--0--(0)---|
|--00------|--00-------|-------------|--------------|

   ss H       ss H   E    E. E.  q      E. E.  q.
|----------|-----------|-------------|--------------|
|5---------|6----------|5------------|6-------------|
|8-22------|8-22-------|8------------|8-------------|
|----------|-----------|--0--0--(0)--|--0--0--(0)---|
[ Tab from: http://www.guitartabs.cc/tabs/m/mastodon/blood_and_thunder_btab.html ]
Riff 4 x4
   E. E. E E      E. E. E s s E    E. E. E s s    E. E. E s ss s
|-------------|-----------------|--------------|-----------------|
|5------------|6----------------|5-------------|6----------------|
|8------------|8--------------2-|8---------5h7-|8---------5h75h7-|
|--7--5--3-0/-|--/7--5--3-0h2---|--5--3--0-----|--5--3--0--------|

Riff 5 x4 (what's in () 3rd time only)
   ssssssssssssssss   ssssssssssssssss   ssssssssssssssss   sssssssssssss ss
|-------------------|------------------|------------------|------------------|
|4------------------|------------------|------------------|------------------|
|4-7777777777775555-|-8886555555552222-|-555322222222-----|-2220-------------|
|-(000000000000)----|------------------|-------------4444-|-----444444432h32-|

Riff 2 x2

Riff 1 x2

Riff 6 x1
  q  q  ssssssss   q  q  ssssssss   q  q  ssssssss   q  q  ssssssss
|----------------|----------------|----------------|----------------|
|----------------|----------------|----------------|----------------|
|----------------|--------------6-|----------------|--------------6-|
|-0--0--21012101-|-0--0--2101210--|-0--0--21012101-|-0--0--2101210--|

  q  q  ssssssss   q  q  ssssssss   q  q  ssssssss   q  q  ssssssss   q H.
|----------------|----------------|----------------|----------------|----------||
|----------------|----------------|----------------|----------------|----------||
|-7--7---------8-|-7--7---------6-|-7--7---------8-|-7--7-----------|----------||
|-------2101210--|-------2101210--|-------2101210--|-------21012100-|-0--------||