Masterplan - Heroes Chords & Tabs

 

Heroes Chords & Tabs

Masterplan Chords & Tabs

Version: 1 Type: Tab 0 ratings
1 star 2 stars 3 stars 4 stars 5 stars
comments

Heroes Tab

   
HEROES

-Masterplan-

Lyrics & music: Masterplan
From the album: Masterplan


Tabbed by Linus "Shirrow" Olsson (Linuso@hotmail.com)


This song is mega! The timing isn't clearly written in the tab, but you should be
able to get it done without too much trouble. In some of the harder timing parts,
I have written the lyrics next to the tab so you can see when to play what. Good luck!


Tuning: Standard (EADGBe)
Played on a guitar with 24 frets.

Tab key:

h = hammer on
p = pull off
b = bend
r = release bend
/ = slide up
 = slide down
x = mute
~ = vibrato

Palm mute all chords with a  *  below.




Intro:
======

e:---------------------------------------------------------------------------------
B:---------------------------------------------------------------------------------
G:--9-----------13b14---11---9---8------13--11--8-9------------13b14---11---9---8--
D:------11--------------------------------------------11---------------------------
A:----------11---------------------------------------------11----------------------
E:---------------------------------------------------------------------------------



Intro rhythm:
=============

This is played along with the intro riff:

e:-----------------------------------------------------------------------------------
B:-----------------------------------------------------------------------------------
G:-----------------------------------------------------------------------------------
D:--11-11-11-11-11-11-11-11-7-7-7-7-7-7-7-7-9-9-9-9-9-9-9-9-10-10-10-10-10-10-10-10--
A:--11-11-11-11-11-11-11-11-7-7-7-7-7-7-7-7-9-9-9-9-9-9-9-9-11-11-11-11-11-11-11-11--
E:--9--9--9--9--9--9--9--9--5-5-5-5-5-5-5-5-7-7-7-7-7-7-7-7-8--8--8--8--8--8--8--8---
    *  *     *  *     *  *  * *   * *   * * * *   * *   * * *  *     *  *     *  *

e:---------------------------------------------------------------------------
B:---------------------------------------------------------------------------
G:---------------------------------------------------------------------------
D:--11-11-11-11-11-11-11-11-7-7-7-7-7-7-7-7-9-9-9-9-9-9-9-9-9-9-9-9-9-9-9-9--
A:--11-11-11-11-11-11-11-11-7-7-7-7-7-7-7-7-9-9-9-9-9-9-9-9-9-9-9-9-9-9-9-9--
E:--9--9--9--9--9--9--9--9--5-5-5-5-5-5-5-5-7-7-7-7-7-7-7-7-7-7-7-7-7-7-7-7--
    *  *     *  *     *  *  * *   * *   * *   * *   * *   *   * *   * *   *



First verse intro:
==================

e:----------------------------------------------
B:----------------------------------------------
G:----------------------------------------------
D:--11------11------11------11------11------11--
A:-----11------11------11------11------11-------
E:--------9-------9-------9-------9-------9-----



Verse rhythm:
=============

e:---------------------------
B:---------------------------
G:---------------------------
D:--11-11-11-11-11-11-11-11--
A:--11-11-11-11-11-11-11-11--
E:--9--9--9--9--9--9--9--9---
    *  *  *  *  *  *  *  *



Bridge:
=======

e:----------------------------------------------------------------
B:----------------------------------------------------------------
G:----------------------------------------------------------------
D:--117--------9--11--------9--7-----9----6-----6-6-6-6-6-6-6-6--
A:--117--------9--11--------9--7-----9----6-----6-6-6-6-6-6-6-6--
E:--9-5--------7--9---------7--5-----7----4-----4-4-4-4-4-4-4-4--
				 	         * * * * * * * *



Chorus:
=======

e:-------------------------------------------------------------------
B:-------------------------------------------------------------------
G:------------------4-4-4-4-4-4-4-4-6-6-6-6-6-6-6-6------------------
D:--2-2-2-2-2-2-2-2-4-4-4-4-4-4-4-4-6-6-6-6-6-6-6-6-6-6-6-6-6-6-6-6--
A:--2-2-2-2-2-2-2-2-2-2-2-2-2-2-2-2-4-4-4-4-4-4-4-4-6-6-6-6-6-6-6-6--
E:--0-0-0-0-0-0-0-0---------------------------------4-4-4-4-4-4-4-4--
    * * * * * * * * * * * * * * * * * * * * * * * * * * * * * * * *

e:-------------------------------------------------------------------
B:-------------------------------------------------------------------
G:--------------------------------------------------4-4-4-4-4-4-4-4--
D:--7-7-7-7-7-7-7-7-2-2-2-2-2-2-2-2-4-4-4-4-4-4-4-4-4-4-4-4-4-4-4-4--
A:--7-7-7-7-7-7-7-7-2-2-2-2-2-2-2-2-4-4-4-4-4-4-4-4-2-2-2-2-2-2-2-2--
E:--5-5-5-5-5-5-5-5-0-0-0-0-0-0-0-0-2-2-2-2-2-2-2-2------------------
    * * * * * * * * * * * * * * * * * * * * * * * * * * * * * * * *



Second verse guitar fill:
=========================

   (willing...) (price...) (call...)          (unlock...)  (paradise...) (time...) 
e:-----------------------------------------------------------------------------
B:-----------------------------------------------------------------------------
G:-----------------------------------------------------------------------------
D:--6------------6/9--------11-----------2---4---6--------------6/9--------11--
A:--4------------4/7--------9------------0---2---4--------------4/7--------9---
E:-----------------------------------------------------------------------------
  (again...)
e:------------
B:------------
G:------------
D:--9------8--
A:--7------6--
E:------------



Guitar solo:
============
[ Tab from: http://www.guitartabs.cc/tabs/m/masterplan/heroes_tab.html ]
e:--------------------------------------------------------------
B:--------------------------------------------------------------
G:--------------------------------------------------------------
D:--2-1-----1-----------------------2-1-----1-------------------
A:------4-2---4-2-1-4-2-1---2-1---------4-2---4-2-1-4-2-1-------
E:------------------------4-----4-2-----------------------2/4~--

e:------------------------------------------------------------------
B:-----------------------------------------4-4~-5p4-------5-4-------
G:--5-4-----4------------------------3-4-6----------6-4-6-----6-----
D:------6-4---6-4-3-6-4-3----4-3--------------------------------6~--
A:------------------------6------6-4--------------------------------
E:------------------------------------------------------------------

e:--14b16-14b16~--16-14-------------------------------------------------------------------
B:----------------------16-14-------------------------------------------------------------
G:----------------------------16-13-16-16b18r16~------------------------------------------
D:-------------------------------------------------------13-14-16--16p1413-------16------
A:-------------------------------------------------14h16--------------------16-14----14~--
E:----------------------------------------------------------------------------------------

e:-------------------------------
B:-------------------------------
G:-------------------------------
D:-------------------------------
A:--11-9-------------------------
E:-------11-10-9-7-4/7b8~---2~--


Guitar and keyboard riff:

                       (x7)
e:--11-------9-------9-----|-------------------------
B:-----11-11---11-11---11--|-----9-11-11-11-11-9-----
G:-------------------------|--11-----------------11--
D:-------------------------|-------------------------
A:-------------------------|-------------------------
E:-------------------------|-------------------------


Guitar solo continues:

e:--21b23-21b23~----21/24b26~--21~----21-19-18-19~----19p18------
B:----------------------------------------------------------18~--
G:---------------------------------------------------------------
D:---------------------------------------------------------------
A:---------------------------------------------------------------
E:---------------------------------------------------------------



Solo rhythm:
============

This is played along with the solo (by a very silent guitar):

e:-----------------------------------------------------------------------
B:-----------------------------------------------------------------------
G:------------------------------4----------------------------------------
D:--6--------2----4----6--------4----4----6--------2----4----6--------4--
A:--6--------2----4----6--------2----4----6--------2----4----6--------4--
E:--4--------0----2----4-------------2----4--------0----2----4--------2--

e:-------------------------------------------------------------------
B:-------------------------------------------------------------------
G:--------------------------------------------------4-4-4-4----------
D:--6-6-6-6-6-6-6-6-2-2-2-2-4-4-4-4-6-6-6-6-6-6-6-6-4-4-4-4-4-4-4-4--
A:--6-6-6-6-6-6-6-6-2-2-2-2-4-4-4-4-6-6-6-6-6-6-6-6-2-2-2-2-4-4-4-4--
E:--4-4-4-4-4-4-4-4-0-0-0-0-2-2-2-2-4-4-4-4-4-4-4-4---------2-2-2-2--
    * * * * * * * * * * * * * * * * * * * * * * * * * * * * * * * *

e:-------------------------------------------------------------------
B:-------------------------------------------------------------------
G:-------------------------------------------------------------------
D:--6-6-6-6-6-6-6-6-2-2-2-2-4-4-4-4-6-6-6-6-6-6-6-6-4-4-4-4-4-4-4-4--
A:--6-6-6-6-6-6-6-6-2-2-2-2-4-4-4-4-6-6-6-6-6-6-6-6-4-4-4-4-4-4-4-4--
E:--4-4-4-4-4-4-4-4-0-0-0-0-2-2-2-2-4-4-4-4-4-4-4-4-2-2-2-2-2-2-2-2--
    * * * * * * * * * * * * * * * * * * * * * * * * * * * * * * * *


And this comes in when the keyboard/guitar duet starts:
								       --
e:-------------------------------------------------------------------    |
B:-------------------------------------------------------------------    |
G:--8-8-8-8-8-8-8-8-8-8-8-8-8-8-8-8-4-4-4-4-4-4-4-4-4-4-4-4-4-4-4-4--	 |
D:--8-8-8-8-8-8-8-8-8-8-8-8-8-8-8-8-4-4-4-4-4-4-4-4-4-4-4-4-4-4-4-4--	 |
A:--6-6-6-6-6-6-6-6-6-6-6-6-6-6-6-6-2-2-2-2-2-2-2-2-2-2-2-2-2-2-2-2--	 |
E:-------------------------------------------------------------------	 |
    * * * * * * * * * * * * * * * * * * * * * * * * * * * * * * * *	 |
									 |-- x2
e:-------------------------------------------------------------------	 |
B:-------------------------------------------------------------------	 |
G:------------------6-6-6-6-6-6-6-6-8-8-8-8-8-8-8-8-8-8-8-8-8-8-8-8--	 |
D:--6-6-6-6-6-6-6-6-6-6-6-6-6-6-6-6-8-8-8-8-8-8-8-8-8-8-8-8-8-8-8-8--	 |
A:--6-6-6-6-6-6-6-6-4-4-4-4-4-4-4-4-6-6-6-6-6-6-6-6-6-6-6-6-6-6-6-6--	 |
E:--4-4-4-4-4-4-4-4--------------------------------------------------	 |
    * * * * * * * * * * * * * * * * * * * * * * * * * * * * * * * *      |
								       --/


Ending:
=======

e:-------------------------------------------------------------------
B:-------------------------------------------------------------------
G:-------------------------------------------------------------------
D:--11------11------11------11------11------11--11-11----x----11-11--
A:-----11------11------11------11------11-------11-11----x----11-11--
E:--------9-------9-------9-------9-------9-----9--9-----x----9--9---


Enjoy!
For comments, corrections, questions, requests etc. Mail to: Linuso@hotmail.com
Comments