Master P - Kennys Dead Chords & Tabs

 

Kennys Dead Chords & Tabs

Master P Chords & Tabs

Version: 1 Type: Bass Tab

Kennys Dead Bass Tab

Artist:Master P
Song:Kenny's Dead
Bassist:Section8
Album:South Park chef aid

Intro
[ Tab from: http://www.guitartabs.cc/tabs/m/master_p/kennys_dead_btab.html ]
G --------------------------------------------|
D --------------------------------------------|
A -3-5----------------------------------------|
E -----5-0-0----------------------------------|

Start (repeat all time)

G --------------------------------------------|
D --------------------------------------------|
A -----9-------9-------9--9-------------------|
E 9-11----9-11----9-11------11-9-11-----------|