Master Joey - No Preocuparme Mas Chords & Tabs

 

No Preocuparme Mas Chords & Tabs

Master Joey Chords & Tabs

Version: 1 Type: Bass Tab 0 ratings
1 star 2 stars 3 stars 4 stars 5 stars
comments

No Preocuparme Mas Bass Tab

URL: www.masterjoey.cl
Country:Chile
Master Joey - No Preocuparme Mas


verso

G-----------------------------------------------------
D-----------------------------------------------------
A---7-7-7-7-7-9-----------6--------------4-4-4-2-2-2--
E---------------7-7-7-7-7---5-5-5-5-5-5---------------


coro

G-------------------------------------------
D-------------------------------------------
A--------------------------------X2---------
E---9-9-9-9-9-9---5-5-5-5-5-5-5-------------

[ Tab from: http://www.guitartabs.cc/tabs/m/master_joey/no_preocuparme_mas_btab.html ]
G---------------------------------------------------------------
D---------------------------------------------------------------
A-----------------7-7-7-7-7-7-7---------------------------------
E---9-9-9-9-9-9--------------------7-7-7-7--5-5-5-5--7-7-7-7----


Outro

G---------------------------------------------------------------------------
D---------------------------------------------------------------------------
A---7-7-7-7-7-7-7-9-9-9-----------9-7-6-7-6------------------4--------------
E------------------------7-7-7-7-------------5-5-5-5-5-5-5-5----7-7-7-7-7-7-
Comments