Massari - Smile For Me Chords & Tabs

 

Smile For Me Chords & Tabs

Massari Chords & Tabs

Version: 2 Type: Tab 0 ratings
1 star 2 stars 3 stars 4 stars 5 stars
comments

Smile For Me Tab

MY FIRST TAB...so u guys b the judge

|---11-11-11-11-10-8-----|
|-11---------------------|
|------------------------| }Pay 2 times
|------------------------|
|------------------------|
|------------------------|
[ Tab from: http://www.guitartabs.cc/tabs/m/massari/smile_for_me_tab_ver_2.html ]
|-------11-11-11-11-10-8-----|
|----------------------------|
|-12-13----------------------| 
|----------------------------|
|----------------------------|
|----------------------------|

concerns? questions? : jomag03@hotmail.com
Comments