Massacre - From Beyond Chords & Tabs

 

From Beyond Chords & Tabs

Massacre Chords & Tabs

Version: 1 Type: Tab 0 ratings
1 star 2 stars 3 stars 4 stars 5 stars
comments

From Beyond Tab

				MASSACRA - From Beyond
				From MASTER OF BRUTALITY
				Version 1.0 Martch 2002

Transcribed by: Vincent

For Questions, Comments, Newest Version, or Corrections contact
 Phil: at gerbeoflife@aol.com

.  - palm mute          /  - slide up to
 \  - slide down to      ~  - vibrato
 h  - hammer on          b  - bend
 p  - pull off            Suffixes for bend
                          ph - pinch harmonic
                           f - full bend    h - half bend
*  - see comment           r - release      t - tap bend
X  - percussion mute       ~ - vibrato bend
@  - slight palm mute     () - Hold note until next note
" - Tremolo until next note
' - Slower Tremolo until next note

Tune Gtr to B

Intro Riff
|-------------|
|-------------|
|-------------|
|-5---7-6---2-|
|-3---5-4---0-|
|-------------|

Riff 1:
|----------------------------------|
|----------------------------------|
|----------------------------------|Gtr 1 & 2
|----------------------------------|
|-3333333355554444------------7777-|
|-----------------444444446666-----|
 pm------------------------------+

Riff 2:
|-------------------------------------|
|-------------------------------------|
|-------------------------------------|
|------7\6------9\8------7\6------5\3-|
|------5\4------7\6------5\4------3\1-|
|-0000-----0000-----0000-----0000-----|
 pm--+    pm--+    pm--+    pm--+

Riff 3:
|----------------------|
|----------------------|
|----------------------|
|----------------------|
|-/8~---7~---10~----4~-|
|----------------------|
[ Tab from: http://www.guitartabs.cc/tabs/m/massacre/from_beyond_tab.html ]
Riff 4:
|-------------------------------------------------------------|
|-------------------------------------------------------------|
|-------------------------------------------------------------|Gtr 1
|-------------------------------------------------------------|
|--------------------------10--8--------------------------8-6-|
|-000000000000000000000000-8---6-000000000000000000000000-6-4-|
 pm----------------------+      pm----------------------+

|-------------------------------------------------------------|
|-------------------------------------------------------------|
|-------------------------------------------------------------|Gtr 2
|-------------------------------------------------------------|
|--------------------------10--8--------------------------8-6-|
|--------------------------8---6--------------------------6-4-|

Riff 5:                             __1.__2.
|--------------------------------------|---|
|--------------------------------------|---|
|--------------------------------------|---|
|--------------------------------------|---|
|------10\8------8\6------10\8------11-|-6-|
|-0000--8\6-0000-6\4-0000--8\6-0000--9-|-4-|
 pm--+     pm--+    pm--+     pm--+

Riff 6:
|-------------------------------------------------|
|-------------------------------------------------|
|-------------------------------------------------|
|-------------------------------------------------|
|-6-----6-----6-----6-----7-----7-----8-----7-----|
|-4-4-4-4-4-4-4-4-4-4-4-4-5-5-5-5-5-5-6-6-6-5-5-5-|
   pm-+  pm-+  pm-+  pm-+  pm-+  pm-+  pm-+  pm-+

Order:

Intro Riff x 4
Riff 1 x 6
Riff 2 x 8
Riff 1 x 6
Riff 2 x 8
Riff 3 x 6
Riff 4 x 6
Riff 5 x 4
Riff 6 x 6 (solo 1)
Riff 2 x 8 (solo 2)
Riff 3 x 6 end
Comments