Mason Williams - Classical Gas Chords & Tabs

 

Classical Gas Chords & Tabs

Mason Williams Chords & Tabs

Version: 3 Type: Tab 0 ratings
1 star 2 stars 3 stars 4 stars 5 stars
comments

Classical Gas Tab

Classic Guitar
                                                                        
E||-----------------|----------------|-----------------|---------------|
B||--1---------1----|--0-------------|--0--------------|---------------|
G||--2----2---------|--0-------------|--0----2----0----|--2------------|
D||-----------------|----------------|-----------------|--2------------|
A||--0--------------|----------------|-----------------|--0------------|
E||-----------------|--3--------2----|--0--------------|---------------|


                                                                     
-----------------|----------------|-----------------|---------------|
--1---------1----|--0-------------|--0--------------|---------------|
--2----2---------|--0-------------|--0----2----0----|--2------------|
-----------------|----------------|-----------------|--2------------|
--0--------------|----------------|-----------------|--0------------|
-----------------|--3--------2----|--0--------------|---------------|


                                                                 
-----------------------------|--0-------------------------------|
--------0--------1--------3--|----------3--1----3-------1--0----|
-----0--------2--------0-----|-------0-----2--------------------|
-----------------------------|-----------------------2----------|
-----------0--------2--------|--3-------------------------------|
--3--------------------------|----------------------------------|


                                                      
--------------------------|--------------------------|
--1--0--1--------1-----0--|--------------------------|
-----------2--------------|--------0--------0--------|
--------------------2-----|-----0--------0--------0--|
--0-----------0-----------|--------------------------|
--------------------------|--3--------2--------0-----|


                                                      
--------------------------|--------------------------|
--0--------------0--------|--------------------------|
-----2--0--2-----------2--|--------2--------2-----2--|
--2-----------------------|-----2--------2-----------|
--------------------------|--0--------0--------0-----|
--------------0-----0-----|--------------------------|


                                                      
--------------------------|--------------------------|
--1--0--1--------1-----0--|--------------------------|
-----------2--------------|--------0--------0--------|
--------------------2-----|-----0--------0--------0--|
--0-----------0-----------|--------------------------|
--------------------------|--3--------2--------0-----|


                                                      
--------------------------|--------------------------|
--0--------------0--------|--------------------------|
-----2--0--2-----------2--|--------2--------2-----2--|
--2-----------------------|-----2--------2-----------|
--------------------------|--0--------0--------0-----|
--------------0-----0-----|--------------------------|


                                                      
--------------------------|--------------------------|
--1--0--1--------1-----0--|--------------------------|
-----------2--------------|--------0--------0--------|
--------------------2-----|-----0--------0--------0--|
--0-----------0-----------|--------------------------|
--------------------------|--3--------2--------0-----|


                                                      
--------------------------|--------------------------|
--0--------------0--------|--------------------------|
-----2--0--2-----------2--|--------2--------2-----2--|
--2-----------------------|-----2--------2-----------|
--------------------------|--0--------0--------0-----|
--------------0-----0-----|--------------------------|


                                                      
--------------------------|--------------------------|
--1--0--1--------1-----0--|--------------------------|
-----------2--------------|--------0--------0--------|
--------------------2-----|-----0--------0--------0--|
--0-----------0-----------|--------------------------|
--------------------------|--3--------2--------0-----|


                                                      
--------------------------|--------------------------|
--0--------------0--------|-----------0--------0--1--|
-----2--0--2-----------2--|--------2--------0--------|
--2-----------------------|-----2--------------------|
--------------------------|--0-----------------------|
--------------0-----0-----|--------------3-----------|


                                                                 
--------------------------|--0--------------------|-------------|
--------1--------3--------|----------3--1----3----|-----1--0----|
-----2--------0--------0--|-------0-----2---------|-------------|
--------------------------|-----------------------|--2----------|
--0--------2--------2-----|--3--------------------|-------------|
--------------------------|-----------------------|-------------|


                                                                              
-----------------------|--------------------------|--------------------------|
-----------------------|-----------0--------0--1--|--------1--------3--------|
--2------0--2--2----0--|--2-----2--------0--------|-----2--------0--------0--|
--3---------2--2----0--|-----2--------------------|--------------------------|
-----------------------|--0-----------------------|--0--------2--------2-----|
--1---------0----------|--------------3-----------|--------------------------|


                                                            
--0--------1--------2--------3--------|--4--0--5--0--7--0--|
-----1--------1--------3--------0-----|--------------------|
--------0--------2--------2--------0--|--------------------|
--------------------0-----------------|--------------------|
--3-----------------------------------|--------------------|
-----------1-----------------3--------|--0-----0-----0-----|


                                                      
--8--7--5--3-----5-----2--|-----5--2-----5--2-----5--|
--------------------------|--------3--------3-----5--|
--------------------------|-----------------------5--|
--------------------------|--0--------0--------------|
--0-----------0-----------|--------------------0-----|
--------------------0-----|--------------------------|


                                                      
--8--7--5--3-----5-----2--|-----3-----5--3-----5-----|
--5--5--5--------5--------|-----3--------3-----5--5--|
--5--5--5--5-----5--------|--------------------5-----|
--------------------------|--0-----0--------0--------|
--------------------------|--------------------------|
--5-----------5-----5-----|--------------------------|


                                                     
--8--7--5--3-----5--------|-------8--5--3-----5--3--|
--5--5--5--------5-----7--|----------------------3--|
--5--5--5--5-----5-----7--|----------------------4--|
--------------------------|--0----0--------0--------|
--------------------------|-------------------------|
--5-----------5-----5-----|-------------------------|


                                                                
------0-------1-------------|-----0-------0-------0-------0----|
------1-------1-------3-----|-----3-------3-------3-------3----|
------0-------2-------3-----|-----2-------2-------2-------2----|
-------------------------0--|----------------------------------|
---------3------------------|--0-------0-------0-------0-------|
-----------------1----------|----------------------------------|


                                                                     
--0----------------|--------------------0--|------------------------|
--3----------------|---------------3-------|----3-------------3-----|
--2----------------|----------2------------|---------2-----2-----0--|
--3----------------|-----3-----------------|------------3-----------|
--0----------------|--0--------------------|------------------------|
-------------------|-----------------------|------------------------|


                                                       
---------------------------|--------------------------|
--0-1-0--1--------------3--|--------1--------0--------|
------------2--------2-----|-----2--------2--------2--|
------------------2--------|--------------------------|
--0------------0-----------|--0--------0--------0-----|
---------------------------|--------------------------|

[ Tab from: http://www.guitartabs.cc/tabs/m/mason_williams/classical_gas_tab_ver_3.html ]
                                                      
--------------------------|--------------------------|
--0-1-0----------------0--|--------------------------|
---------2----------2-----|--------2--------0--------|
-----------------2--------|-----2--------2--------2--|
--0-----------0-----------|--0--------0--------0-----|
--------------------------|--------------------------|


                                                       
---------------------------|--------------------------|
--0-1-0--1--------------0--|--------1--------3--------|
------------2--------2-----|-----2--------2--------2--|
------------------2--------|--------------------------|
--0------------0-----------|--0--------0--------0-----|
---------------------------|--------------------------|


                                                      
--0-----0-----------------|--------------------------|
-----1-----3--0--3--1-----|--1--0-----0-----0--1--3--|
-----------------------2--|--------0-----2-----------|
--------------------------|--------------------------|
--0--------0--------0-----|-----0--------0-----0--2--|
--------------------------|-----------------3--------|


                                                      
--0-----0-----------------|--------------1--0--------|
-----3-----1--------1--0--|--------3-----------3--0--|
-----------------0--------|-----0-----0--------------|
--------------------------|--------------------------|
--3-----------3-----------|--2-----2-----2-----------|
--------------------------|--------------------------|


                                                      
--0-----0-----------------|--------------1--0--------|
-----3-----1--------1--0--|--------3-----------3--0--|
-----------------0--------|-----0-----0--------------|
--------------------------|--------------------------|
--3-----------3-----------|--2-----2-----2-----------|
--------------------------|--------------------------|


                                                      
--0-----0-----------------|--------------1--0--------|
-----3-----1--------1--0--|--------3-----------3--0--|
-----------------0--------|-----0-----0--------------|
--------------------------|--------------------------|
--3-----------3-----------|--2-----2-----2-----------|
--------------------------|--------------------------|


                                                                                
--0-----0-----------------|--------------------------|-------------------------|
-----3-----1--------1--0--|--------------------------|--0--------------0-------|
-----------------2--------|--------0--------0--------|-----2--0--2--------2----|
--------------------------|-----0--------0--------0--|--2----------------------|
--0-----------0-----------|--------------------------|-------------------------|
--------------------------|--3--------2--------0-----|--------------0-----0----|


                                                                           
--------------------------|--0-----1-----2-----3-----|--4-----5-----7-----|
--------0-----1-----3-----|--1-----1-----3-----3--0--|--5--0--5--0--5--0--|
--------0-----2-----0-----|-----0-----2-----2--------|--------------------|
-----2-----0-----2-----0--|--------------0-----------|--------------------|
--0-----------0-----2-----|--3-----------------------|--------------------|
--------3-----------------|--------1-----------3-----|--0-----------------|


                                                      
--8--7--5--3-----5-----2--|-----5--2-----5--2-----5--|
--------------------------|--------3--------3-----5--|
--------------------------|-----------------------5--|
--------------------------|--0--------0--------------|
--0-----------0-----------|--------------------0-----|
--------------------0-----|--------------------------|


                                                      
--8--7--5--3-----5-----2--|-----3-----5--3-----5-----|
--5--5--5--------5--------|-----3--------3-----5--5--|
--5--5--5--5-----5--------|--------------------5-----|
--------------------------|--0-----0--------0--------|
--------------------------|--------------------------|
--5-----------5-----5-----|--------------------------|


                                                     
--8--7--5--3-----5--------|-------8--5--3-----5--3--|
--5--5--5--------5-----7--|----------------------3--|
--5--5--5--5-----5-----7--|----------------------4--|
--------------------------|--0----0--------0--------|
--------------------------|-------------------------|
--5-----------5-----5-----|-------------------------|


                                                                
------0-------1-------------|-----0-------0-------0-------0----|
------1-------1-------3-----|-----3-------3-------3-------3----|
------0-------2-------3-----|-----2-------2-------2-------2----|
-------------------------0--|----------------------------------|
---------3------------------|--0-------0-------0-------0-------|
-----------------1----------|----------------------------------|


                                                                          
--0----------------|--------------------------|--------------------------|
--3----------------|--1--0--1--------1-----0--|--------------------------|
--2----------------|-----------2--------------|--------0--------0--------|
--3----------------|--------------------2-----|-----0--------0--------0--|
--0----------------|--0-----------0-----------|--------------------------|
-------------------|--------------------------|--3--------2--------0-----|


                                                      
--------------------------|--------------------------|
--0--------------0--------|--------------------------|
-----2--0--2-----------2--|--------2--------2-----2--|
--2-----------------------|-----2--------2-----------|
--------------------------|--0--------0--------0-----|
--------------0-----0-----|--------------------------|


                                                      
--------------------------|--------------------------|
--1--0--1--------1-----0--|--------------------------|
-----------2--------------|--------0--------0--------|
--------------------2-----|-----0--------0--------0--|
--0-----------0-----------|--------------------------|
--------------------------|--3--------2--------0-----|


                                                      
--------------------------|--------------------------|
--0--------------0--------|-----------0--------0--1--|
-----2--0--2-----------2--|--------2--------0--------|
--2-----------------------|-----2--------------------|
--------------------------|--0-----------------------|
--------------0-----0-----|--------------3-----------|


                                                               
--------------------------|--0--------------------|-----------|
--------1--------3--------|----------3--1----3----|--0--------|
-----2--------0--------0--|-------0-----2---------|-----------|
--------------------------|-----------------------|--2--------|
--0--------2--------2-----|--3--------------------|-----------|
--------------------------|-----------------------|-----------|


                                                                              
-----------------------|--------------------------|--0-----1-----2-----3-----|
-----------------------|--------0-----1-----3-----|--1-----1-----3-----3--0--|
--2--------0--2--2--0--|--2--------0-----2-----0--|-----0-----2-----2--------|
--3-----------2--2--0--|-----2--------------------|--------------0-----------|
-----------------------|--0-----------0-----2-----|--3-----------------------|
--1-----------0--------|--------3-----------------|--------1-----------3-----|


                                                                     
--4-----5-----7--5--|--------------3-------|--0-------1-------------|
--5--0--5--0--5--5--|------7-------3-------|--1-------1-------3-----|
-----------------5--|------7-------0-------|--0-------2-------3-----|
--------------------|------7--0------------|---------------------0--|
--------------------|----------------------|-----3------------------|
--0-----------------|-----------------3----|-------------1----------|


                                                                         
--------------------0--|------------------------|--------------------0--|
---------------3-------|----3-------------3-----|---------------3-------|
----------2------------|---------2-----2-----0--|----------2------------|
-----3-----------------|------------3-----------|-----4-----------------|
--0--------------------|------------------------|--0--------------------|
-----------------------|------------------------|-----------------------|


                                              
------------------------|-------------------||
----3-------------3-----|--2----------------||
---------2-----2-----0--|--2----------------||
------------4-----------|--2----------------||
------------------------|--0----------------||
------------------------|-------------------||
Comments