Mason Jennings - Ballad For Paul And Sheila Chords & Tabs

 

Ballad For Paul And Sheila Chords & Tabs

Mason Jennings Chords & Tabs

Version: 1 Type: Tab 0 ratings
1 star 2 stars 3 stars 4 stars 5 stars
comments

Ballad For Paul And Sheila Tab

   
ballad for paul and Sheila
by mason jennings
tabbed by gavin wahl-stephens
album: use your voice
tune half step down

intro/verse
G                 G                D              D
-7--------7-------7--------7-------2-------2------2-------2--------|
------8-------8--------8-------8-------3-------3------3-------3----|
----7---7---7--------7---7---7-------2---2---2------2---2---2------|
-----------------------------------0--------------0----------------|
-10---------------10-----------------------------------------------|
-------------------------------------------------------------------|
[ Tab from: http://www.guitartabs.cc/tabs/m/mason_jennings/ballad_for_paul_and_sheila_tab.html ]
C               C               G               D
-0-------0------0-------0-------3-------3-------2-------2-----2-----2---|
-----1-------1------1-------1-------3-------3-------3-------3----3----3-|
---0---0---0------0---0---0-------0---0---0-------2---2---2-----2-2--2--|
------------------------------------------------0-------------0---------|
-3--------------3-------------------------------------------------------|
--------------------------------3---------------------------------------|

chorus
same picking pattern used, with the picking of the root note first but different chords.

C C  Am Am  D D C G G

Intro
Verse 2x
Chorus 2x
Verse 2x
Chorus 2x
Intro
Outro 4x

Outro
G
--------------0------0h2p0-------------------------|
-0-----3-------------------3--0------0-----0-------|
-----0-----0------0----------------0-----0------0--|
---------------------------------------------------|
---------------------------------------------------|
-3-3---3-3----3-3----3-----3--3--3-----3---3--3----|


end of fourth time strum a G chord
Comments