Mascis J - Someone Said Chords & Tabs

 

Someone Said Chords & Tabs

Mascis J Chords & Tabs

Version: 1 Type: Tab 0 ratings
1 star 2 stars 3 stars 4 stars 5 stars
comments

Someone Said Tab

   
Someone Said 

By J Mascis + The Fog on Free so Free

Tabbed by Brian Pruvost (the.miner@wanadoo.fr)

----

intro + chorus:

e|--------------0--------------||-0-|
B|--------10-------10----10----||-1-|
G|-----9------9-------11-------||-0-|
D|--0-----------------------0--||-2-|
A|-----------------------------||-3-|
E|-----------------------------||---|
[ Tab from: http://www.guitartabs.cc/tabs/m/mascis_j/someone_said_tab.html ]
Verse:
	    G	    A       D    Bm
e|--------3----0---0-0—-2—-0-2—-0-
B|--0-0-0-0----2—2h3-2—-3----3----
G|--0-0-0-0----2---2-2—-2----4----
D|--0-0-0-0----2---2-2—-0----4----
A|--------2----0---0-0-------2----
E|--------3-----------------------

   C    A       D     Bm
e|--0----2---0-0—-2---0-2—0--
B|--1----2-2h3-2—-3-----3----
G|--0----2---2-2—-2-----4----
D|--2----2---2-2—-0-----4----
A|--3----0---2-2--------2----
E|-----------0-0-------------

   C    A*
e|--0----5----|
B|--1----5----|
G|--0----6----|
D|--2----7----|
A|--3----0----|
E|------------|


Comments