Mascis J - Freedom Chords & Tabs

 

Freedom Chords & Tabs

Mascis J Chords & Tabs

Version: 1 Type: Tab 0 ratings
1 star 2 stars 3 stars 4 stars 5 stars
comments

Freedom Tab

   
Freedom

By J Mascis and The Fog on Free so Free

Tabbed by Brian Pruvost (the.miner@wanadoo.fr)
----
Guitars :

Capo on fret 3

    P.1
e|c|--2-3--2-3--2-----------------2-3--2-3--5-----------------|
B|a|---------------5-5-5-3-3-3-3---------------5-5-5-3-3-3-3--|
G|p|----------------------------------------------------------|
D|o|----------------------------------------------------------|
A| |----------------------------------------------------------|
E|3|----------------------------------------------------------|

    P.2						
e|c|--3-----3-----3--2-----2-----2-|
B|a|----3-----3-------3-----3------|
G|p|------0-----0-------2-----2----|
D|o|-------------------------------|
A| |-------------------------------|
E|3|-------------------------------|
	
    P.3
e|c|--2h3p2p0----|
B|a|----------3--|
G|p|-------------|
D|o|-------------|
A| |-------------|
E|3|-------------|

    P.4
e|c|------------------------------|
B|a|------------------------------|
G|p|----------5-------------------|
D|o|-------6----6--7--6--7--6---6-|
A| |--5/7-------------------------|
E|3|------------------------------|

    P.5
e|c|-----------------------------|
B|a|-----------------------------|
G|p|--------5--------------------|
D|o|-----6----6--7--6--7--6---6--|
A| |--7--------------------------|
E|3|-----------------------------|
[ Tab from: http://www.guitartabs.cc/tabs/m/mascis_j/freedom_tab.html ]
    P.6
e|c|--3--10-10-----2-3-2------3--10-10--------3-2------|
B|a|--3----------3--------5---3-----------3-5------3~--|
G|p|------------------------------------4--------------|
D|o|---------------------------------------------------|
A| |---------------------------------------------------|
E|3|---------------------------------------------------|

    P.7
e|c|--------------|
B|a|--------------|
G|p|--5-x-5-7-x-7-|
D|o|--5-x-5-7-x-7-|
A| |--3-x-3-5-x-5-|
E|3|--------------|

    P.8
e|c|------------|
B|a|------------|
G|p|--5-x-5-7\--|
D|o|--5-x-5-7\--|
A| |--3-x-3-5\--|
E|3|------------|

    P.9
e|c|--3-x-x-x-x-3-x-x-x-x-3--2-x-x-x-x-2-x-x-x-x-2--|
B|a|--3-x-x-x-x-3-x-x-x-x-3--3-x-x-x-x-3-x-x-x-x-3--|
G|p|--0-x-x-x-x-0-x-x-x-x-0--2-x-x-x-x-2-x-x-x-x-2--|
D|o|------------------------------------------------|
A| |------------------------------------------------|
E|3|------------------------------------------------|

    P.10 *= harmonic
e|c|----------------|
B|a|----5*-----7*---|
G|p|--5-5*-5-7-7*-7-|
D|o|--5-5*-5-7-7*-7-|
A| |--3----3-5----5-|
E|3|----------------|

-----
 Structure :
G1 :Guitar 1 (left) G2 :Guitar 2 (right)

Intro :
G1:p.1 x2 / p.2 x4/ p.3
G2:	     / p.9 x4/

-Verse 1:
G1:p.4   / p.5 x3
G2:p.4 x4

-Chorus 1:
G1:p.2 x4 / p.3
G2:9.9 x4

-Verse 2:
G1:p.4 / p.5 x3
G2:p.4 x4

-Chorus 2:
G1:p.2 x4
G2:p.9 x4

-Break 1:
G1:p.1 x2 / p.6 x2 / p.7  x11 / p.8
G2:p.1 x2 / p.p x4 / p.10 x12

-Chorus 3:
G1:p.2 x8
G2:p.9 x8


-Break 2:
G1: p.1 x2
G2: p.1 x2

-Chorus 4:
G1:p.2 x4 / p.6 x2
G2:p.9 x8

Comments