Mary J Blige - Family Affair Chords & Tabs

 

Family Affair Chords & Tabs

Mary J Blige Chords & Tabs

Version: 1 Type: Bass Tab 0 ratings
1 star 2 stars 3 stars 4 stars 5 stars
comments

Family Affair Bass Tab

____________________________________________________________________________
****************************************************************************
Title: Family Affair
Artist: Mary J. Blige
Tabbed by: Reynaldo R. Ramos
E-mail: rey_rrr20@yahoo.com
Date: January 20, 2004
____________________________________________________________________________
****************************************************************************


Intro:
e|---------------------------------------------------|
B|---------------------------------------------------|
G|---------------------------------------------------|
D|---------------------------------------------------|
A|---4--4-4-4-4-4---4-2-2-4--4-4-4----4-6-7---6-4-6--|
E|---------------------------------------------------|
[ Tab from: http://www.guitartabs.cc/tabs/m/mary_j_blige/family_affair_btab.html ]
e|---------------------------------------------------|
B|---------------------------------------------------|
G|---------------------------------------------------|
D|---------------------------------------------------|
A|--------------------------------------2--6--2------|
E|------4-4-4-4-4---4-2-2-4--4-4--4-4----------------|

verse and Choruses: (Do it until end)

e|---------------------------------------------------|
B|---------------------------------------------------|
G|---------------------------------------------------|
D|---------------------------------------------------|
A|------4-4-4-4-4---4-2-2-4--4-4-4----4-6-7---6-4-6--|
E|---------------------------------------------------|

e|---------------------------------------------------|
B|---------------------------------------------------|
G|---------------------------------------------------|
D|---------------------------------------------------|
A|--------------------------------------2--6--2------|
E|------4-4-4-4-4---4-2-2-4--4-4--4-4----------------|



That's it hope you enjoy!!!!!!!
Comments