Mary Arden Collins - Rain Chords & Tabs

 

Rain Chords & Tabs

Mary Arden Collins Chords & Tabs

Version: 1 Type: Tab 0 ratings
1 star 2 stars 3 stars 4 stars 5 stars
comments

Rain Tab

   
Song: Rain
Artist: Mary Ardin Collins
Albumn: Mary Ardin Collins
Tabbed by: Bob Miller (onefinebob@aol.com)

Mary Arden Collins is a singer/songwriter from Wilmington, DE.
This is a beautiful song inspired by the rains of Costa Rica.  
Check her out at www.maryardencollins.com

Each - equals one eighth note
The basic pattern is repeated through most of the song, with
slight variations in each verse.

Intro:
|--0--0--|--0--0-0|--0--0-0|-0---0--|--0----0|--0----0|--0----0|
|--------|--------|--------|---0---0|-----0--|-----0--|-----0--|
|---1----|---2----|---4----|--6---6-|---1----|---2----|---4----|
|------2-|4-----4-|6-----6-|7---7---|------2-|4-----4-|6-----6-|
|--------|--------|--------|--------|--------|--------|--------|
|0-------|--------|--------|--------|0-------|--------|--------|

|-0---0--|-0---0--|
|---0---0|---0---0|
|--6---6-|--6---6-|
|7---7---|7---7---|
|--------|--------|
|--------|--------|

VERSE 1: 
  Cleansing, calming..    
|--0----0|--0----0|--0----0|-0---0--|
|-----0--|-----0--|-----0--|---0---0|
|---1----|---2----|---4----|--6---6-|
|------2-|4-----4-|6-----6-|7---7---|  This line 4x
|--------|--------|--------|--------|
|0-------|--------|--------|--------|  

cry...
|--0----0|--0----0|--0----0|-0---0--|-0---0--|
|-----0--|-----0--|-----0--|---0---0|---0---0|
|---1----|---2----|---4----|--6---6-|--6---0-|
|------2-|4-----4-|6-----6-|7---7---|7---7---|
|--------|--------|--------|--------|--------|
|0-------|--------|--------|--------|--------|

CHORUS 1: 
      Here comes....          
|-0---0--|-0---0--|-0---0--|-0---0--|
|---0---0|---0---0|---0---0|---0---0|
|--1---1-|--2---2-|--4---4-|--6---0-|
|----2---|4---4---|6---6---|7---7---|  This line 2x
|2-------|--------|--------|--------|
|0-------|--------|--------|--------|

   Here comes...                    Gutters...       
|-0---0--|-0---0--|-0---0--|0-------|0---0---|-0---0--|
|---0---0|---0---0|---0---0|0-------|0---0---|---0---0|
|--1---1-|--2---2-|--4---4-|6-------|4---2---|--1-----|
|----2---|4---4---|6---6---|7-------|6---4---|------2-|
|2-------|--------|--------|--------|----4---|----2---|
|0-------|--------|--------|--------|--------|1-------|

|--0----0|--0----0|--0----0|-0---0--|
|-----0--|-----0--|-----0--|---0---0|
|---1----|---2----|---4----|--6---6-|
|------2-|4-----4-|6-----6-|7---7---|
|--------|--------|--------|--------|
|0-------|--------|--------|--------| 

VERSE 2: (slight variation from verse 1)
Rain can be...
|--0----0|--0----0|--0----0|-0---0--|
|-----0--|-----0--|-----0--|---0---0|
|---1----|---2----|---4----|--6---6-|
|------2-|4-----4-|6-----6-|7---7---|  This line 4x
|2-------|--------|--------|--------|
|0-------|--------|--------|--------| 

tonight...
|--0----0|--0----0|--0----0|-0---0--|-0---0--|
|-----0--|-----0--|-----0--|---0---0|---0---0|
|---1----|---2----|---4----|--6---6-|--6---0-|
|------2-|4-----4-|6-----6-|7---7---|7---7---|
|--------|--------|--------|--------|--------|
|0-------|--------|--------|--------|--------|
[ Tab from: http://www.guitartabs.cc/tabs/m/mary_arden_collins/rain_tab.html ]
CHORUS 2: (ending different from chorus 1)
      Here comes....          
|-0---0--|-0---0--|-0---0--|-0---0--|
|---0---0|---0---0|---0---0|---0---0|
|--1---1-|--2---2-|--4---4-|--6---0-|
|----2---|4---4---|6---6---|7---7---|  This line 2x
|2-------|--------|--------|--------|
|0-------|--------|--------|--------|

   Here comes...                    Gutters...       
|-0---0--|-0---0--|-0---0--|0-------|0---0---|0-------|
|---0---0|---0---0|---0---0|0-------|0---0---|0-------|
|--1---1-|--2---2-|--4---4-|6-------|4---2---|1-------|
|----2---|4---4---|6---6---|7-------|6---4---|2-------|
|2-------|--------|--------|--------|----4---|2-------|
|0-------|--------|--------|--------|--------|1-------|

BRIDGE: (strumming, basically D Dudu D Dudu in each measure)
			      1 2&3& 1 2&3&

Aadd2      
rain..        

         E*      Aadd2       E*
Blowing breeze       On my knees      

Aadd2	      E*            B  Aadd2
  Wond'ring  what I'm gonna do

    E*     Aadd2 E*        Add2 E*           
Thunder        Lightning        Waking up to morning...

dew...
|- 0 - - - 0-  -|- 0 - - - 0 - -|
|- - - 0 - - - 0|- - - 0 - - - 0|
|- - 9 - - - 9 -|- - 9 - - - 0 -|
|- - - - 12- - -|12- - - 12- - -|
|- - - - - - - -|- - - - - - - -|
|0 - - - - - - -|- - - - - - - -|

Outro:
Here comes...
|-0---0--|-0---0--|-0---0--|-0---0--|
|---0---0|---0---0|---0---0|---0---0|
|--1---1-|--2---2-|--4---4-|--6---0-|
|----2---|4---4---|6---6---|7---7---|
|2-------|4-------|--------|--------|
|0-------|--------|--------|--------|

Here comes...
|-0---0--|-0---0--|-0---0--|-0---0--|
|---0---0|---0---0|---0---0|---0---0|
|--1---1-|--2---2-|--4---4-|--6---0-|
|----2---|4---4---|6---6---|7---7---|
|2-------|--------|--------|--------|
|0-------|--------|--------|--------|

Here comes         the rain          E*
|-0---0--|-0---0--|-0---0--|0-------|12  
|---0---0|---0---0|---0---0|0-------|0   
|--1---1-|--2---2-|--4---4-|6-------|13  (strum down)
|----2---|4---4---|6---6---|7-------|14   
|2-------|--------|--------|--------|14  
|0-------|--------|--------|--------|0   

Chords:

Asus2:		E*              B:
x       o       x       o       x       o
| | | | | |     | | | | | |     | | | | | |
| | | | | 5     | | | | | 12    | | | | | 7
| | | 6 | |     | | | 13| |     | | | 8 | |
| 7 7 | | |     | 1414| | |     | 9 9 | | |
| | | | | |     | | | | | |     | | | | | |

Lyrics:

VERSE 1:
Cleansing, calming, clear
Rain is coming near
The welcome scent, the cloudy sky
Heaven's opening for a healthy cry

CHORUS:
Here comes the rain
Here comes the rain
Here comes the rain
Rivers rushing, gutters gushing 
I love the rain

VERSE 2:
Rain can be fierce
It can be fierce
Makes me think of all the time gone by
Wish you were here with me tonight

CHORUS

BRIDGE:
Blowing breeze
On my knee
Wond'ring what I'm gonna do
Thunder
Lightning
Waking up to morning dew

Here comes the rain
Here comes the rain
Here comes the rain
Comments