Marx Richard - Now And Forever Solo Chords & Tabs

 

Now And Forever Solo Chords & Tabs

Marx Richard Chords & Tabs

Version: 2 Type: Tab

Now And Forever Solo Tab

Now and forever solo
by Richard Marx

I've found only one tab of this song in the archives,
but with an incomplete solo. So I tabbed out my version
of it.

-------------------------------------
-------------------------------------
----------3h4-4--4-5---4-5-5h7-4-----
5h7-4-5-7------------7-----------5-7-
-------------------------------------
-------------------------------------

[ Tab from: http://www.guitartabs.cc/tabs/m/marx_richard/now_and_forever_solo_tab_ver_2.html ]
----------------------------0-7------
----------------8-----7-7h8----------
----------4-5-4----------------------
----4-5-7---------9-7----------------
5-7----------------------------------
-------------------------------------

7h8-7---------7----------------------
------10p8-10---8------8-8---/10-----
-------------------7-7-----7---------
-------------------------------------
-------------------------------------
-------------------------------------


-------------------------------------
8-8p7--------------------------------
------9-7----------------------------
----------10-9-7-9h10----------------
-------------------------------------
-------------------------------------

There. That sounds alright to me.
You can always mail me with comments, suggestions, anything at
d_prankster13@hotmail.com