Martyrdom - Raven Chords & Tabs

 

Raven Chords & Tabs

Martyrdom Chords & Tabs

Version: 1 Type: Tab 0 ratings
1 star 2 stars 3 stars 4 stars 5 stars
comments

Raven Tab

MARTYRDOM - RAVEN

- Incomplete version -

Guitar 1: down half a step
Guitar 2: standard tuning

INTRO [GUITAR 1]
			       X 3		  X 3
|-------------------------------|------------------|
|-------------------------------|------------------|
|-------------------------------|------------------|
|-------------------------------|------------------|
|-0-0-0-7h8-0-0-0-5h6-0-0-0-3h4-|--------7---6---5-|
|-------------------------------|--0-0-0-7-0-6-0-5-|

RIFF 1

GUITAR 1 & 2    GUITAR 2
[ Tab from: http://www.guitartabs.cc/tabs/m/martyrdom/raven_tab.html ]
|-------|-----------------------------------------------|
|-------|-----------------------------------------------|
|-------|-----------------------------------------------|
|-9-8-7-|-----------------------------------------------|
|-9-8-7-|-------7-7-7-7-7--5-5-5-5-5--3-3-3-3-3hbrbr-|
|-7-6-5-|-----------------------------------------------|

VERSE GUITAR 1			VERSE GUITAR 2
		  X 4				  X 4
|------------------|		|------------------|
|------------------|		|------------------|
|--------5---4---2-|		|------------------|
|--------5---4---2-|		|--------9---8---7-|
|--------3-0-2-0-0-|		|--------9---8---7-|
|--0-0-0-----------|		|--0-0-0-7-0-6-0-5-|

CHORUS GUITAR 1 & 2
			  X 3
|--------------------------|
|--------------------------|
|--------9-7-9-------9-7-5-|
|--------9-7-9-------9-7-5-|
|--------7-5-7-------7-5-3-|
|--0-0-0-------0-0-0-------|
Comments