Marty Friedman - Arrival Chords & Tabs

 

Arrival Chords & Tabs

Marty Friedman Chords & Tabs

Version: 1 Type: Tab

Arrival Tab

E-------9--12~--9-12-b14-12-10-12~-9-9H10-9-----9-9-----------9--------------|
B----10-------------------------------------10~-----12-10-12----12~-10-------|
G--9-------------------------------------------------------------------11-9~-|
D----------------------------------------------------------------------------|
A----------------------------------------------------------------------------|
E----------------------------------------------------------------------------|

E------------14-17~~~16b17~~~~~~~~----------------------------------|
B----------14-------------------------------------------------------|
G--------14---------------------------------------------------------|
D--14-16------------------------------------------------------------|
A-------------------------------------------------------------------|
E-------------------------------------------------------------------|
[ Tab from: http://www.guitartabs.cc/tabs/m/marty_friedman/arrival_tab.html ]