Marty Casey - Trees Chords & Tabs

 

Trees Chords & Tabs

Marty Casey Chords & Tabs

Version: 1 Type: Bass Tab

Trees Bass Tab

Trees
-Marty Casey
Note:This is the first version that he did on Rock Star INXS. The other times he played
it he changed the song a little. Go on www.rockstar.msn.com to download it. Please leave
comments!

Intro 0:00
G------------|
D------------|
A--*rest*----|
E------------|

Chorus 0:26
G---------------------|
D---------------------|
A------------4*---0*--|
E--0*---4*------------|

Verse 0:39
G-----------------------------------------------------------------------|
D-----------------------------------------------------------------------|
A------------------------------------4444444444444444-0000000000000000--|x2
E--0000000000000000-4444444444444444------------------------------------|

Chorus 1:04
G--------------------------------------------------------------------------------|
D----------6--6--6-----------------------------88---------88---7777777777777777--|
A--77777777-77-77-7----------2--2--2---5555-99----5555-99------------------------|x2
E--------------------44444444-44-44-4--------------------------------------------|
[ Tab from: http://www.guitartabs.cc/tabs/m/marty_casey/trees_btab.html ]
Bridge 1:28
G-----------------------------------------------------------------------------|
D-----------------------------------------------------------------------------|
A--------------------0000000000000000--------------------777-666-444-2-0------|
E--2222222222222222--------------------0000000000000000------------------4-0--|

Chorus 1:44
G------------------------------------------------------|-------------------|
D------------------------------------------------------|----------6--6--6--|
A-------------------4444444444444444-0000000000000000--|--77777777-77-77-7-|
E--4444444444444444------------------------------------|-------------------|

G--------------------------------------------------------------|
D---------------------------88---------88---7777777777777777---|
A----------2--2--2---5555-99----5555-99------------------------|
E--44444444-44-44-4--------------------------------------------|

Outro 2:05
G--------------------------|
D--------------------------|
A------------------0*---0--|
E--2-2--2---2-2-2----------|

__________________________
  SYMBOLS:                |
          *=let note ring |
__________________________|