Martina Mcbride - I Love You Chords & Tabs

 

I Love You Chords & Tabs

Martina Mcbride Chords & Tabs

Version: 1 Type: Tab 0 ratings
1 star 2 stars 3 stars 4 stars 5 stars
comments

I Love You Tab

   
Martina Mcbride-I love you
Tabsmail-cifrastabs@zipmail.com.br
       Martina McBride-I love you

        C              F
|--------0-------------1-------|
|--------1---0---------1-------|
|--------0---0---------2-------|
|2-----------0---------3-------|
|3-----------0---------3-------|
|------------------------------|

        C            G                                                       
|--------3-----------3---------|
|--------1-----------0---0-----|
|--------0---0-------0---0-----|
|2-----------0-------3---------|
|3-------------------3---------|
|------------------------------|
[ Tab from: http://www.guitartabs.cc/tabs/m/martina_mcbride/i_love_you_tab.html ]
        Fadd9                                C           G
|--------3---3-------3---3---3---|----0-------0-------3-------3---|
|--------1---1-------1---1---1---|----1-------1-------0-------0---|
|--------2---2-------2---2---2---|----0-------0-------0-------0---|
|--------3---3-------3---3---3---|----2-------2-------0-------0---|
|--------------------------------|----3-------3-------------------|
|--------------------------------|--------------------------------|

        Fadd9                          G                           Chorus:   C         Am   
|----3-------3-------3-------3---|----3-------3-------3-------3---|--------0-----------0-----|
|----1-------1-------1-------1---|----3-------3---3---3-------3---|--------1---1-------1-----|
|----2-------2-------2-------2---|----0-------0---0---0-------0---|--------0-----------2-----|
|----3-------3-------3-------3---|----0-------0---0---0-------0---|--------2---2-------2-----|
|--------------------------------|--------------------------------|--------3---3-------------|
|--------------------------------|--------------------------------|--------3---3-------------|

   Am7                   C   
|---3-----3----3---3-------------|
|---1-----1----1---0-----1-------|
|---2-----2----------------------|
|------------------------2-------|
|------------------------3-------|
|--------------------------------|


TabsMail...
http://tabsmail.8m.com

Comments