Marshall Tucker Band - Cant You See Chords & Tabs

 

Cant You See Chords & Tabs

Marshall Tucker Band Chords & Tabs

Version: 1 Type: Tab 0 ratings
1 star 2 stars 3 stars 4 stars 5 stars
comments

Cant You See Tab

   
--------------------------------------------------------------------------
			     Can't you see - Marshall Tucker Band
--------------------------------------------------------------------------
Tabbed by: Ryan Baker	

Email: ohiogrown05@netzero.net

Tuning:	Standard

         I have no idea why this tabs getting such low votes, it's very
      accurate.  Please don't vote a 3 just because it may be to 
      difficult.  And email if you have any corrections or requests.




e|------2-----3-2---------2-0---------0-----3-0---3-----------------2-3-2-|
B|--3-----3-------3-----3-----------3---3---3-3---3-----------------3-3-3-|
G|----2-----2-------2-------------0-------0-2-2---0-----0-----0-----2-2-2-|
D|O-------------------0---------0-----------------0---------0-----0-0-0-0-|
A|----------------------------3---------------------0h2---0---------------|
E|----------------------------------------------3---------------3---------|

e|0h2-------------------------------------------------------17-17-19-17h19|
B|3---------10-10-12-10h12p10----------10----------15-17s19---------------|
G|2---7-9/11------------------7-7-9s11----9h11p9-7------------------------|
D|0-----------------------------------------------------------------------|
A|------------------------------------------------------------------------|
E|------------------------------------------------------------------------|
[ Tab from: http://www.guitartabs.cc/tabs/m/marshall_tucker_band/cant_you_see_tab.html ]
e|p17------------17-------------14p12-12p10-------------------------------|
B|---15-15-17s19----17h19p17-15-------------12----------------------------|
G|---------------------------------------------11p9s7---------7h9p7-9b-7--|
D|--------------------------------------------------------7h9------------9|
A|----------------------------------------------------7h9-----------------|
E|------------------------------------------------------------------------|

e|------------------------------------------------------------------------|
B|------------------------------------------------------------------------|
G|7-7-9b-9b-7-9-7-9p7-9b-7---7-----9b-9b-7-9b-7---7-7--------7-10s9-7---7-|
D|-------------------------9---9-7--------------9--------7h9----------9---|
A|----------------------------------------------------10------------------|
E|------------------------------------------------------------------------|

e|------------------------------------------------------------------------|
B|------------------------------------------------------------------------|
G|-----------------Continue with a D C G strum pattern--------------------|
D|------------------------------------------------------------------------|
A|------------------------------------------------------------------------|
E|------------------------------------------------------------------------|



| /  slide up
| \  slide down
| h  hammer-on
| p  pull-off
| ~  vibrato
| +  harmonic
| x  Mute note
==========================================================================
Comments