Mars Volta - Televators Chords & Tabs

 

Televators Chords & Tabs

Mars Volta Chords & Tabs

Version: 3 Type: Tab 0 ratings
1 star 2 stars 3 stars 4 stars 5 stars
comments

Televators Tab

"Televators" - The Mars Volta

Ok, I'm not going to tab the lead parts out.  If you 
can't figure the lead out (since it's so slow) I don't 
know what to tell you... 

Anyway, the rhythm parts are here.  And they're not hard 
at all!  Oh yeah, I actually tabbed the Bridge part out 
correctly.  That's a good thing since no one else has.



**Main Riff**

|-----------------|-----------------|
|-----------------|-----------------|
|------------(x4)-|-4----------(x4)-|
|-5---------------|----5---5--------|
|------4---4------|------5---5------|
|-7--7---7--------|-3---------------|



**Chorus** (chords only, since he improvises the pattern)
[ Tab from: http://www.guitartabs.cc/tabs/m/mars_volta/televators_tab_ver_3.html ]
|-0-|---|  |---------2---3-|
|-0-|-3-|  |-0---0---3---3-|
|-0-|-3-|  |-0---0---4---2-|
|-2-|-5-|  |-2---2---4---2-|
|-2-|-5-|  |-2---2---2---0-|
|-0-|-3-|  |-0---0---------|



**Bridge**

|------------------------|---------------------|
|------------------------|---------------------|
|-7----------7---11------|-6----------6--------|
|------0---0-----------0-|------0---0------0---|
|------------------------|---------------------|
|-7--7---7---7------10---|-5--5---5---5--5---5-|


|----------------------------|--------------------------|
|-8----------8-------12------|--------------------------|
|----------------------------|-11------------9----------|
|------0---0---------------0-|--------0-----------0-----|
|-7--7---7---7--9/10----12---|--------------------------|
|----------------------------|-10--10---10---9--9---9---|
Comments