Mars Volta - Televators Chords & Tabs

 

Televators Chords & Tabs

Mars Volta Chords & Tabs

Version: 2 Type: Tab 0 ratings
1 star 2 stars 3 stars 4 stars 5 stars
comments

Televators Tab

Verse:
e--------------------------------------
B--------------------------------------
G--------------------------------------
D---4--------4-------------------------
A---5--------2-------------------------
E---7--------3-------------------------

Chorus:
e--0------3----(3)----------------------------
B--0------3----(5)----------------------------
G--0------3----(3)----------------------------
D--2------3----(3)----------------------------
A--2------5----(5)----------------------------
E--0------3----(3)----------------------------

[ Tab from: http://www.guitartabs.cc/tabs/m/mars_volta/televators_tab_ver_2.html ]
e--7------10----12---------
B--------------------------
G--------------------------
D--------------------------
A--------------------------
E--------------------------

   
e--(7)---(7)-----------------------
B--(8)---(8)---5-------------------
G---7-----7----4----7--------------
D---9-----9----4----9--------------
A---7-----7----5----10-------------
E----------------------------------


whole step bend up to C#
e----------------------------------
B-14--12~-10---12-14--12~-10--12---
G----------------------------------
D----------------------------------
A----------------------------------
E----------------------------------

 
e--3--5----0----7--------5---4-----
B--3--7----2----8---12---7---5-----
G--5--7----2----9---9----7---4-----
D--4--7----2----9---9----7---5-----
A--2--5----0----7---7----5---4-----
E----------------------------------
Comments