Mars Volta - Televators Chords & Tabs

 

Televators Chords & Tabs

Mars Volta Chords & Tabs

Version: 1 Type: Tab 0 ratings
1 star 2 stars 3 stars 4 stars 5 stars
comments

Televators Tab

   
-----------------------------------------------------------------------------
                      THE MARS VOLTA - TELEVATORS
-----------------------------------------------------------------------------

tabbed by: stellar_legs
e-mail: uncle_stellar@hotmail.com
tuning: standard

Compared to the rest of Deloused, this is a fairly easy song. The Bridge section
gave me trouble, as there's a lot of bass and effects, and you really have to
listen to the guitar, but I swear it's there. Have at you!

Intro (acoustic. the beginning notes are done on an electric, but who cares?)
e----------------------------------------------|
B----------------------------------------------|
G----------------------------------------------|
D------0---0--4--0---0--4--0---0--4--0----0----|
A--2~----2---------2---------2---------2-------|
E----------------------------------------------|

e---------------------------------------------------|
B---------------------------------------------------|
G---------------------------------------------------|
D--------------4-----------4-----------4------------|
A------2----2-----2-----2-----2-----2-----2-----2---|
D--3~-----3----------3-----------3-----------3------|
[ Tab from: http://www.guitartabs.cc/tabs/m/mars_volta/televators_tab.html ]
Chorus (high pitched, whammy-like effect. Intro plays background)
e---15~~~----17^-17^/18^-----15~~~----17^-17^/18^---|
B---------------------------------------------------|
G---------------------------------------------------|
D---------------------------------------------------|
A---------------------------------------------------|
E---------------------------------------------------|

Then this (acoustic)
e--------------7x---------|
B--0x----------7x----5x---|
G--2x----4x----5x----4x---|
D--2x----5x----5x----3x---|
A--0x----5x----5x---------|
E--------3x---------------|

Electric fill (another crazy effect)
e------------------------------------------------------------------------|
B--14~~----12^(big bend)------12----14~-----12^(big bend)-----12---14/---|
G------------------------14~------------------------------14~------------|
D------------------------------------------------------------------------|
A------------------------------------------------------------------------|
E------------------------------------------------------------------------|
Repeat until verse.

Bridge (a little unclear)
e--7~-----9~----10~-----9~-----|
B--5~-----7~-----8~-----7~-----|
G--5~-----7~-----8~-----7~-----|
D------------------------------|
A------------------------------|
E------------------------------|

Repeat until verse (or chorus?)


Fin.
Comments