Mars Volta - Roulette Dares Chords & Tabs

 

Roulette Dares Chords & Tabs

Mars Volta Chords & Tabs

Version: 1 Type: Tab 0 ratings
1 star 2 stars 3 stars 4 stars 5 stars
comments

Roulette Dares Tab

Roulette Dares:

tabbed by "Rob" Mtz. S.

(Muffled bit)Intro:
E-------------------------
B-------------------------
G-------------------------
D--------------5--0-0-2-0-
A--0-0-0-3-3-3------------
E-------------------------

Intro:
E-------------------------
B-------------------------
G-------------------------
D----------------5-0-0-2-0
A--0-3-3-0-3-0-3----------
E-------------------------

E-------------------------
B-------------------------
G-------------------------
D----------------5-0-2----
A--0-3-3-0-3-0-3----------
E-------------------------

Verse:
[ Tab from: http://www.guitartabs.cc/tabs/m/mars_volta/roulette_dares_tab.html ]
E----12--12---10------10---10------------7------
B--13--13---12--12--12---12---13-12-10--6--5-6-5
G--------------------------------------7--------
D--
A--
E--

play this as the loud brash chord when things go loud.
you know what i mean.
E----
B--5-
G--5-
D--5-
A--3-
E----

Chorus:

E--5---------------------5--
B--6----------1-4-5--8-5-6--
G--7----------2-4-5--9-5-7--
D--7----------2-4-5--9-5-7--
A--5--3-5-3-0-0-2-3--7-3-5--
E---------------------------

This is the basics and the rest of the song is solos
and improvisation and hence the best thing to do is 
just that,shake your ass and noodle away.

email is r_nietzsche@hotmail.com
Comments