Mars Volta - Miranda That Ghost Just Isnt Holy Anymore Chords & Tabs

 

Miranda That Ghost Just Isnt Holy Anymore Chords & Tabs

Mars Volta Chords & Tabs

Version: 1 Type: Tab 0 ratings
1 star 2 stars 3 stars 4 stars 5 stars
comments

Miranda That Ghost Just Isnt Holy Anymore Tab

The Mars Volta
Miranda, That Ghost Just Isn't Holy Anymore
Frances the Mute

Beginning Trumpet:

E [--5~-----------------------------------------5~--]
B [------8-6~--6------------6~-5~-8~-6~--6~-8~------]
G [--------------7~--7------------------------------]
D [--------------------7~---------------------------]
A [-------------------------------------------------]
E [-------------------------------------------------]
[ Tab from: http://www.guitartabs.cc/tabs/m/mars_volta/miranda_that_ghost_just_isnt_holy_anymore_tab.html ]
Verse:
W/ Phaser, Delay, Reverb
E [---0~-----0~---]
B [---6~----6~----]
G [---7~---7~-----]
D [---7~--7~------]
A [---------------]
E [---------------]
                       
E [---0~-----0~--6~---------3~---------0~-----0~--]
B [---6~----6~---6~-----6~--3~-----3~--6~----6~---]
G [---7~---7~----7~----7~---3~----3~---7~---7~----] Repeat x 2 [w/ different picking pattern]
D [---7~--7~-----8~---8~----5~---5~----7~--7~-----]
A [--------------8~--8~-----5~--5~----------------]
E [-------------------------3~--------------------]

Chorus:
[Hard to hear, might just be keyboard]

E [----------------------------5~--]
B [---6~--5~--8~--6~---6~--8~--6~--]
G [---7~--3~--6~--7~---7~--6~--7~--]
D [---7~--5~--8~--7~---7~--8~------]
A [---5~----------5~---5~----------]
E [--------------------------------]

Verse x 2
Chorus

Bridge Trumpet with volume pitch
E [------------------------------------------]
B [---------//5\\--//6\\--------------5-6-8--]
G [--//7\\-------------------------/7--------]
D [-----------------------//7\\--------------]
A [------------------------------------------]
E [------------------------------------------]

Heavy Chorus

End [Improv on D Natural min Scale]
Comments