Mars Volta - Lvia Lviaquez Chords & Tabs

 

Lvia Lviaquez Chords & Tabs

Mars Volta Chords & Tabs

Version: 1 Type: Tab 0 ratings
1 star 2 stars 3 stars 4 stars 5 stars
comments

Lvia Lviaquez Tab

Solo #1 Guitar 1
|-------------------------------------------------------------------------------|
|-------------------------------------------------------------------------------|
|----------------------------------------------------------------------7b--7b---|
|------10-8----10-8----10-8----10-8----10-8----10-8----10-8----10-8-------------|
|-8-10------10------10------10------10------10------10------10------10----------|
|-------------------------------------------------------------------------------|

Solo #1 Guitar 1 Cont'd
|------------------------|
|------------------------|
|-7-10-------------------|
|--------8-10-8-10-------|
|------------------10-10-|
|------------------------|

Solo #1 Guitar 2
|-----8-6-6-(keep-repeating)-|
|----------------------------|
|----------------------------|
|----------------------------|
|----------------------------|
|----------------------------|

Verse
|-------------6-88888-----------------------5------|
|-6-88888-----x-xxxxx-----8-66666---------4---4----|
|-x-xxxxx-----3-55555-----x-xxxxx-----2-5-------5--|
|-3-55555-----------------5-33333------------------|
|--------------------------------------------------|
|--------------------------------------------------|

Riff #1
|------------------------------------------|
|-8------8--10-------8------8--------------|
|---7----------8-------7------7----5--7-5--|
|-----8------------------8------8----------|
|------------------------------------------|
|------------------------------------------|

Prechorus #1 and #2 Guitar 1
|----------------------10---10-|
|-6--8----8--11----11--10---10-|
|-5--7----7--10----10----------|
|------------------------------|
|------------------------------|
|------------------------------|

Prechorus #1 and #2 Guitar 2
|--------------------------|
|--------------------------|
|--------------------------|
|--------------------------|
|---------0--1----3--5---5-|
|-1--3---------------------|

Riff #2
|-----------|
|-----------|
|-----------|
|-----------|
|-----------|
|-8---6---5-|
  .   .   .

Chorus #1
|------------------------------------------10------------------------------------|
|------10---------------------------------------13----11---10-----------10-------|
|-12-------12------10------------------------------------------------------------|
|--------------12------12---10---------------------------------12-13-12-----10-8-|
|-------------------------------13--12-------------------------------------------|
|--------------------------------------------------------------------------------|

Chorus #1 Cont'd
|-10-----------------------------------------------10--------------------------|
|-----13---11---13-13-13---11-------10--11--------------13---11---10---11------|
|-------------------------------12-----------12-----------------------------12-|
|------------------------------------------------------------------------------|
|------------------------------------------------------------------------------|
|------------------------------------------------------------------------------|

Chorus #1 COnt'd
|-----------------10------------------------|
|---------10----------13---11---10---11-----|
|-------------11-------------------------12-|
|-13--12------------------------------------|
|-------------------------------------------|
|-------------------------------------------|

Solo #2
|-10b---------------------------------------8----------|
|------8-8-8-11---8-8-8-11---8-8-8-11-8-8-8---8-8-8-11-|
|------------------------------------------------------|
|------------------------------------------------------|
|------------------------------------------------------|
|------------------------------------------------------|

Solo #2 Cont'd
|-----13-13-10-(x10)--------10---10b------------------------------------|
|-13-----------------13-11------------11-13-13-13-11-----------11-------|
|----------------------------------------------------12--10-12----10-12-|
|-----------------------------------------------------------------------|
|-----------------------------------------------------------------------|
|-----------------------------------------------------------------------|

Solo #2 Cont'd
|--------------------------|
|--------------------------|
|--------------------------|
|-10-8---------11--10-8----|
|------10-(x8)----------10-|
|--------------------------|

Chorus #2
|----------------------------------10--------------------------------------------------|
|-----10-------------------------------13--11--10-----------------------------------13-|
|-12--------------10-------------------------------------------------------------------|
|----------13-12------12--10------------------------12-13-12---------------------------|
|-----------------------------13--------------------------------15------------12-13----|
|--------------------------------------------------------------------15-13-15----------|
[ Tab from: http://www.guitartabs.cc/tabs/m/mars_volta/lvia_lviaquez_tab.html ]
Chorus #2 Cont'd
|-----------------------10----------------------------------10---------------------|
|-11-------10-11------------13--11--10--11-----------10---------13--11--10--11-----|
|------12----------12-----------------------12-----------11---------------------12-|
|----------------------------------------------13-12-------------------------------|
|----------------------------------------------------------------------------------|
|----------------------------------------------------------------------------------|

Solo #3
|-15--------------------------------13-----12--------10--------------------------|
|------12--------------11--------------11-------10------11--10h11p10h11p10h11p10-|
|----------13---------------12--11-----------------------------------------------|
|--------------12-13-------------------------------------------------------------|
|--------------------------------------------------------------------------------|
|--------------------------------------------------------------------------------|

Solo #3 Cont'd
|------------------------17------14-15------------19-----17------21-----|
|-13----------------15------15---------------17------18-----18----------|
|------13---------------------------------15------------------------19--|
|----------14-13--------------------------------------------------------|
|-----------------------------------------------------------------------|
|-----------------------------------------------------------------------|

Prechorus #3 Guitar 1
|----------------------10b--------------10-|
|-6--8----8--11----11--10b-(let-ring)---10-|
|-5--7----7--10----10----------------------|
|------------------------------------------|
|------------------------------------------|
|------------------------------------------|

Prechorus #3 Guitar 2
|--------------------------------------|
|--------------------------------------|
|--------------------------------------|
|--------------------------------------|
|---------0--1----3--5b-(let-ring)---5-|
|-1--3---------------------------------|

Chorus #3
|-(No-guitar-until-the-end)-10-------------------------------------------------------|
|-------------------------------13--11--10--11------------10-------------------------|
|----------------------------------------------12------------11-(repeat-until-11:02)-|
|--------------------------------------------------13-12-----------------------------|
|------------------------------------------------------------------------------------|
|------------------------------------------------------------------------------------|

Solo #4 (9:02-9:30)
|----------------------------------------------------------------------------------|
|-------------------10-10----------------------------------------------------------|
|-10-12-12-(x8)--12-------12----------------------------------------------7-7------|
|----------------------------12-10-10-------------------10-12-12-10-8--10-----10-8-|
|-------------------------------------10-8-8---10-12-12----------------------------|
|----------------------------------------------------------------------------------|

Solo #4 Cont'd
|------------------------------------------------------------|
|---------8--10-8-8------10p8----8--------8-10p8-------------|
|----10-7--------7-7----------10---10------------10----------|
|-10-----------------10---------------10------------10-11-10-|
|------------------------------------------------------------|
|------------------------------------------------------------|

Solo #4 Cont'd
|---------------------------------------------------------------------------------------|
|---------------------------------------------------------------------------------------|
|-10------------------------------------------------------------------------------------|
|-----------13--------------10-10-----10-10---------------------------------------------|
|----12--12----12-12-13-12--------12--------12-10------------12-12-10-------10-12-13-12-|
|--------------------------------------------------13-13-10-----------13-13-------------|

Solo #5 (10:08-10:47)
|-12-10---------------------------------------------------------------------------------|
|-------13-10---------------------------------------------------------------------------|
|--------------9-10-12-9-10-------11-12----------10-------------------------------------|
|---------------------------12-10------------13------12-------------------------10------|
|-----------------------------------------12------------10-12-13-------8---10-8----8-10-|
|-----------------------------------------------------------------8-10------------------|

Solo #5 Cont'd (Two guitars at this part, each playing the same note but on a different octave)
|----------------------------------------------------------------------------|
|----------------------------------------------------------------------------|
|----------------------------------------------------------------------------|
|----------------------3-5-5-(x7)--------------------------------------------|
|-6p5----6p5---3-3----------------1-1-3-3-3-5--------------------------------|
|----6------6------1--------------------------3---3--6--3---3-3-1-3-3-3-3b-3-|

2nd Guitar
|----------------------------------------------------------------------------|
|----------------------------------------------------------------------------|
|-8p7----8p7---5-5----------------3-3-5-5-5-7--------------------------------|
|----8------8------3--------------------------5---5--8--5---5-5-3-5-5-5-5b-5-|
|----------------------------------------------------------------------------|
|----------------------------------------------------------------------------|
Comments