Mars Volta - Intertiatic Esp Chords & Tabs

 

Intertiatic Esp Chords & Tabs

Mars Volta Chords & Tabs

Version: 1 Type: Bass Tab

Intertiatic Esp Bass Tab

   
Band: The Mars Volta
Song: Intertiatic E.S.P.
Album: De-Loused In The Comatorium

(0:00)
G:-----------------------------------------------:
D:------2-222-2-2--0-000-0-0--4-444-4-4----------:
A:2222-----------------------------------2-22-4-2:
E:-----------------------------------------------:

G:-------------------------------------------:
D:--2-222-2-2--0-000-0-0--4-444-4-4----------:   x2
A:-----------------------------------2-22-4-2:
E:-------------------------------------------:

G:---------------------------------------:
D:--2-222-2-2--0-000-0-0--4-444-4-4------:
A:-----------------------------------2222:
E:---------------------------------------:

(0:17)
G:---------------------------------------------------------:
D:--2--2--0--0--4--4-------------2--2--0--0----------------:   x3
A:--------------------2--2-4-2---------------4--4--2--2-4-2:
E:---------------------------------------------------------:

G:-------------------------:
D:--2----0----4------------:
A:-----------------2-22-4-2:
E:-------------------------:

(0:46)
G:-------------------------------------------:
D:--2-222-2-2--0-000-0-0--4-444-4-4----------:   x4
A:-----------------------------------2-22-4-2:
E:-------------------------------------------:

G:-------------------------------------------:
D:--2-222-2-2--0-000-0-0---------------------:
A:------------------------4-444-4-4--2-22-4-2:
E:-------------------------------------------:

G:--------------------------------------:
D:--2-222-2-2--0-000-0-0-4-444-4-4------:
A:----------------------------------2222:
E:--------------------------------------:
[ Tab from: http://www.guitartabs.cc/tabs/m/mars_volta/intertiatic_esp_btab.html ]
(1:12)
G:--------------------------------------------------------:
D:--2--2--0--0--4--4------------2--2--0--0----------------:   x3
A:--------------------2--2-4-2--------------4--4--2--2-4-2:
E:--------------------------------------------------------:

G:------------------------:
D:--2--2--0--0--4--4------:
A:--------------------2222:
E:------------------------:

(1:41)
G:-------------------------------------------:
D:--2-222-2-2--0-000-0-0--4-444-4-4----------:   x5
A:-----------------------------------2-22-4-2:
E:-------------------------------------------:

G:---------------------------------:
D:--2-222-2-2--0-000-0-0--4-444-4-4:
A:---------------------------------:
E:---------------------------------:

(2:06)
G:-----------------------------:
D:----------0-0-0-2-2-2-4-4-0-0:   x3
A:--2-2-2-2--------------------:
E:-----------------------------:

G:------:
D:------:
A:-2-2-2:
E:------:

(2:16)
G:----------------------------:
D:---------0-0-0-2-2-2-4-4-0-0:   x16
A:-2-2-2-2--------------------:
E:----------------------------:

(3:00)
G:---------------------------------------------------:
D:----------2-222-2-2--0-000-0-0--4-444-4-4----------:
A:2-22-4-2-----------------------------------2-22-4-2:
E:---------------------------------------------------:

G:-------------------------------------------:
D:--2-222-2-2--0-000-0-0--4-444-4-4----------:  x3
A:-----------------------------------2-22-4-2:
E:-------------------------------------------:

G:------------------------------:
D:------------------------------:
A:----55555----2-22-4-2----55555:
E:------------------------------: