Mars Volta - Inertiatic Esp Chords & Tabs

 

Inertiatic Esp Chords & Tabs

Mars Volta Chords & Tabs

Version: 4 Type: Tab 0 ratings
1 star 2 stars 3 stars 4 stars 5 stars
comments

Inertiatic Esp Tab

The Mars Volta - son et lumiere





guitar 1

   1	 2     3     4      1     2     3     4	
   w/ phaser	
e |------------------------|------------------------|
B |19p-0-15p-0-19p-0-15p-0-|19p-0-15p-0-19p-0-15p-0-|
G |------------------------|------------------------|
D |------------------------|------------------------|
A |------------------------|------------------------|
E |------------------------|------------------------|


guitar 2

   1	 2     3     4      1     2     3     4	     1     2     3     4

   [ Tab from: http://www.guitartabs.cc/tabs/m/mars_volta/inertiatic_esp_tab_ver_4.html ]
e |------------|------------|------------|------9-----|
B |7-----------|------------|------7-----|7--10-------|
G |7-----------|---------9--|7--9-----9--|------------|
D |----9-9-9---|9--7--9-----|------------|------------|
A |----9-9-9---|------------|------------|------------|
E |------------|------------|------------|------------|

  Guitar 2
   w/ dist
   1   2   3    1   2   3    1   2   3    1     2     3       

e |------------|------------|------------|------------------|
B |7-----------|8-8-8-8-8-8-|7-7-7-7-7-7-|10-10-10-10-10-10-|
G |7-----------|9-9-9-9-9-9-|7-7-7-7-7-7-|11-11-11-11-11-11-|
D |----9-9-9---|9-9-9-9-9-9-|7-7-7-7-7-7-|11-11-11-11-11-11-|
A |----9-9-9---|7-7-7-7-7-7-|5-5-5-5-5-5-|9--9--9--9--9--9--|
E |------------|------------|------------|------------------|


Guitar 1
   w/ dist
   1   2   3    1       2       3        1       2       3        1       2       3       

e |------------|------------------------|------------------------|------------------------|
B |7-----------|------------------------|------------------------|------------------------|
G |7-----------|------------------------|------------------------|------------------------|
D |----9-9-9---|------------------------|------------------------|------------------------|
A |----9-9-9---|7-7-7-7-7-7-7-7-7-7-7-7-|5-5-5-5-5-5-5-5-5-5-5-5-|9-9-9-9-9-9-9-9-9-9-9-9-|
E |------------|------------------------|------------------------|------------------------|


   1   2   3    1       2       3        1       2       3        1       2       3       

e |------------|------------------------|------------------------|------------------------|
B |7-7-7-7-7---|------------------------|------------------------|------------------------|
G |7-7-7-7-7---|------------------------|------------------------|------------------------|
D |------------|------------------------|------------------------|------------------------|
A |------------|7-7-7-7-7-7-7-7-7-7-7-7-|5-5-5-5-5-5-5-5-5-5-5-5-|9-9-9-9-9-9-9-9-9-9-9-9-|
E |------------|------------------------|------------------------|------------------------|



Interlude
Guitar 1
  
   1   2   3     4   5   6     7    1   2   3     4   5   6      7                     

e |--------------------------------|--------------------------------|
B |--------------------------------|--------------------------------|
G |--------------------------------|--------------------------------|
D |--------------------------------|9-9-9-9-7h9-9-9-9-9-9-9-7h9-9-9-|
A |--------------------------------|--------------------------------|
E |7-7-7-7-7-5h7-7-7-7-7-7-5h7-7-7-|--------------------------------|


   1     2     3     4     5     6     7      1   2   3   4   5   6   7                                

e |------------------------------------------|----------------------------|
B |------------------------------------------|----------------------------|
G |------------------------------------------|----------------------------|
D |12-12-12-12-12-12-12-12-12-12-12-12-12-12-|----------------------------|
A |------------------------------------------|9-9-9-9-9-9-9-9-9-9-9-9-9-9-|
E |------------------------------------------|----------------------------|



   1   2   3    1   2   3    1   2   3    1   2   3       

e |------------|------------|------------|------------|
B |7-------7---|----7-------|7-------10--|----10------|
G |7-------7---|----7-------|7-------7---|----7-------|
D |9-------9---|----8-------|8-------7---|----7-------|
A |9-------9---|----9-------|9-------9---|----9-------|
E |------------|------------|------------|------------|




Outro

   1   2   3    1   2   3    1   2   3    1   2   3       

e |------------|------------|------------|------------|
B |7-7-7-7-----|----8-8-8---|7-7-7-7-----|------------|
G |7-7-7-7-----|----9-9-9---|7-7-7-7-----|------------|
D |9-9-9-9-----|------------|7-7-7-7-----|------------|
A |9-9-9-9-----|7-----------|5-5-5-5-----|4---5---4---|
E |7-7-7-7-----|------------|------------|------------|



   1   2   3    1   2   3    1   2   3    1   2   3       

e |------------|------------|---9--------|------------|
B |------------|----7-8-7---|-----7------|--11--------|
G |--7---------|----9-9-9---|-------7----|-----11-----|
D |----9-------|------------|0-----------|--------12--|
A |------9-----|7-----------|------------|9-----------|
E |7-----------|------------|------------|------------|
Comments