Mars Volta - Frances The Mute Chords & Tabs

 

Frances The Mute Chords & Tabs

Mars Volta Chords & Tabs

Version: 1 Type: Tab

Frances The Mute Tab

Chains etc

4.32:
-15-------15-------12-------12-----------------|
----12-------12-------12-------12--------------|
--------15-------15-------15-------15----------|
-----------------------------------------------|
-----------------------------------------------|
-----------------------------------------------|

-15-------15-------12-------12--------12-------10-------12---------------|
----12-------12-------12-------12--------10-------10-------10------------|
-------15-------15-------15-------15--------12-------12-------12---------|
-------------------------------------------------------------------------|
-------------------------------------------------------------------------|
-------------------------------------------------------------------------|

-10--------12-------10-------11-------11-------------|
----10--------10-------10-------10-------10----------|
-------12--------12-------12-------12-------12-------|
-----------------------------------------------------|
-----------------------------------------------------|
-----------------------------------------------------|
[ Tab from: http://www.guitartabs.cc/tabs/m/mars_volta/frances_the_mute_tab.html ]
-7-----7-----5-----5------7-----7-----5-----5------------|
---5-----5-----5-----5------5-----5-----5-----5----------|
-----7-----7-----7-----7------7-----7-----7-----7--------|
---------------------------------------------------------|
---------------------------------------------------------|
---------------------------------------------------------|

-7-------7-------7-------7--------7-------7-------7-------7-------------------|
---11-11---11-11---11-11---11-11----11-11---11-11---11-11---11-11-------------|
------------------------------------------------------------------------------|
------------------------------------------------------------------------------|
------------------------------------------------------------------------------|
------------------------------------------------------------------------------|

Solo ?

7:15 acoustic bit, gmajor

???

11:12
E ----------------------------------------------------------|
B ----------------------------------------------------------|
G ----------------------------------------------------------|
D ----------------------------------------------------------|
A -------------------------------------------5--3-3---------|
E -0---0-2-3-5-3-2-3-2-2----0-2-3-2-3-----------------------|

E ----------------------------------------------------------------------------|
B ----------------------------------------------------------------------------|
G ---------------------------------------------------------4-2-----2-0--------|
D ----0-2-4-0-2-4--0-2--------------4-5-4-0-0-2-2--------------4--------2-----|
A --------------------------2-0-2---------------------------------------------|
E ----------------------------------------------------------------------------|