Marques Houston - Clubbin Chords & Tabs

 

Clubbin Chords & Tabs

Marques Houston Chords & Tabs

Version: 2 Type: Tab 0 ratings
1 star 2 stars 3 stars 4 stars 5 stars
comments

Clubbin Tab

   
Marques Houston - Clubbin
Tabbed by:raidlink
Email:weexor@gmail.com


| /  slide up
| h  hammer-on
| p  pull-off
| b  bend
===============

all parts are just repeated and
all that good stuff.


guitar 1
e|---------------------------------------------------|
B|-------7b-h8p7-------------------------------------|
G|---8-9---------9-8-9-------------------------------|
D|---------------------------------------------------|
A|---------------------------------------------------|
E|---------------------------------------------------|
[ Tab from: http://www.guitartabs.cc/tabs/m/marques_houston/clubbin_tab_ver_2.html ]
e|---------------------------------------------------|
B|-------7b-h8p7--------10/12------------------------|
G|---8-9---------9-8---------------------------------|
D|---------------------------------------------------|
A|---------------------------------------------------|
E|---------------------------------------------------|

guitar 2
e|--12---12-12--7---7-7--7---7-7---------------------|
B|--12---12-12--8---8-8--8---8-8-12---12-12----------|
G|--12---12-12--9---9-9--8---8-8-12---12-12----------|
D|-------------------------------12---12-12----------|
A|---------------------------------------------------|
E|---------------------------------------------------|
guitar 3
e|-7------------5--------5-------7-------------------|
B|-8------------6--------7-------8-------------------|
G|-9------------7--------5-------7-------------------|
D|-9------------7--------8-------9-------------------|
A|-7------------5--------5-------7-------------------|
E|---------------------------------------------------|
Comments