Maroon 5 - Through With You Chords & Tabs

 

Through With You Chords & Tabs

Maroon 5 Chords & Tabs

Version: 1 Type: Tab 0 ratings
1 star 2 stars 3 stars 4 stars 5 stars
comments

Through With You Tab

   
-------------------------------------------------------------------------------
			     Through With You - Maroon5
-------------------------------------------------------------------------------
Tabbed by:Swisha	
Email:xxxswishaxxx@aol.com

Tuning: Standard Tuned Down  step (Eb,Ab,Db,Gb,Bb,Eb)

  W/ wah-wah
e|---------------------------------------------------------------------------|
B|---------------------------------------------------------------------------|
G|---------------------------------------------------------------------------|
D|---------------------------------------------------------------------------|
A|----------------------------------5--------5--------5h7---5---------5------|
E|-7---------------------5h7---6h7-----7---------7--------------6h7-------7--|

  The main riff is also played like this:

e|---------------------------------------------------------------------------|
B|---------------------------------------------------------------------------|
G|-------------7-----------7------7h9---7----------7-------------------------|
D|--7h9---8h9-----9---7h9-----9--------------8h9------9----------7-----------|
A|-----------------------------------------------------------9-------9-------|
E|---------------------------------------------------------------------------|

Verse:

  Can you see me...        As you lay in bed thinking about everything 
e|---------------------------------------------------------------------------|
B|---------------------------------------------------------------------------|
G|---------------------------------------------------------------------------|
D|---------------------------------------------------------------------------|
A|-------------------------------7-------5-----------------------------------|
E|--------5h7------------------------------------------7--------5------------|

  That you did not do...    has nothing to do with meaning it
e|---------------------------------------------------------------------------|
B|---------------------------------------------------------------------------|
G|---------------------------------------------------------------------------|
D|---------------------------------------------------------------------------|
A|-----------------------------7---------5-----------------------------------|
E|-----------------7\------------------------------7------5------------------|

Then it goes into the main riff again...then into the next verse

Chorus
[ Tab from: http://www.guitartabs.cc/tabs/m/maroon_5/through_with_you_tab.html ]
  Bm				  D
  You ain't never coming back to me, that's not how things were supposed to be
e|---------------------------------------------------------------------------|
B|---------------------------------------------------------------------------|
G|---------------------------------------------------------------------------|
D|---------------------------------------------------------------------------|
A|------------------------------------5--------5------------------5--------5-|
E|--7--------7----------7--------7-------------------------------------------|

  You take my hand just to give it back, no other lover has ever done that
e|---------------------------------------------------------------------------|
B|---------------------------------------------------------------------------|
G|---------------------------------------------------------------------------|
D|---------------------------------------------------------------------------|
A|--7---------7------------7--------7-----9--------9----------9--------9-----|
E|---------------------------------------------------------------------------|





In the end of the second chorus it goes like this...

   I called to let you know I'm through with you
e|---------------------------------------------------------------------------|
B|---------------------------------------------------------------------------|
G|---------------------------------------------------------------------------|
D|-----5--------4------------------------------------------------------------|
A|----------7-------5---7----4----5------------------------------------------|
E|---------------------------------------5----7------------------------------|

That's just about it...the interlude though goes like this

e|---------------------------------------------------------------------------|
B|---------------------------------------------------------------------------|
G|---------------------------------------------------------------------------|
D|------------------------------7--------------------------------------------|
A|--------------5-6-5-6---8-9-8-----7---5-7-5--------5-----5-----------------|
E|----6-7-6-7---------------------------------7-5-7-----4--------------------|

e|---------------------------------------------------------------------------|
B|---------------------------------------------------------------------------|
G|---------------------------------------------------------------------------|
D|------------------------------7--------------------------------------------|
A|--------------5-6-5-6---8-9-8-----7---5-7-5--------5-------5-------5-------|
E|----6-7-6-7---------------------------------7-5-7------4-------3-------2---|

e|---------------------------------------------------------------------------|
B|---------------------------------------------------------------------------|
G|---------------------------------------------------------------------------|
D|----4--5-----4-------------------------------------------------------------|
A|----------7------5--7--4--5--2---------------------------------------------|
E|---------------------------------------------------------------------------|




| /  slide up
| \  slide down
| h  hammer-on
| p  pull-off
| ~  vibrato
| +  harmonic
| x  Mute note
Comments