Maroon 5 - This Love Chords & Tabs

 

This Love Chords & Tabs

Maroon 5 Chords & Tabs

Version: 3 Type: Tab 0 ratings
1 star 2 stars 3 stars 4 stars 5 stars
comments

This Love Tab

This Love
by Maroon 5
tabbed by Eric (fookwanfoo@hotmail.com) Questions?

There are two guitars in this song. Guitar1 plays that funky riff,
guitar2 plays along with the bassline. When the tabs for each guitar
are not separated by a space, they're played together. 

FILLS - These quick fills are played by guitar1 in between chord
changes in the verse. I put them here because it looks crowded
in the tab. The tab shows you when to play them in the intro, 
but for the rest of the song you'll just have to figure it out.
I don't think there's a regular pattern--just improvise.
h = hammer-on, p = pull-off, 

            I                        II
e|-----------------------------------------------------------------
B|-----------------------------------------------------------------
G|------------8h10p8-----------------------------------------------
D|----------10------10---------------10-10-10-10-------------------
A|-----------------------------------(palm-muted)------------------
E|-----------------------------------------------------------------


INTRO
              (fills!)
Guitar1:       I               II              I
e|-7-7-X7--7-------8-8-X8--8-------8-8-X8--8-------7-7-X7--7-------
B|-6-6-X6--6-------8-8-X8--8-------9-9-X9--9-------6-6-X6--6-------
G|-7-7-X7--7-------8-8-X8--8-------8-8-X8--8-------7-7-X7--7-------
D|-----------------------------------------------------------------
A|-----------------------------------------------------------------
E|-----------------------------------------------------------------
Guitar2, at the same time
e|-----------------------------------------------------------------
B|-----------------------------------------------------------------
G|-----------------------------------------------------------------
D|-----------------------------------------------------------------
A|-----------------------------------------------------------------
E|-----------------------------------------------------------4---6-



VERSE

Guitar1:
e|-7-7-X7--7-------8-8-X8--8-------8-8-X8--8-------7-7-X7--7-------
B|-6-6-X6--6-------8-8-X8--8-------9-9-X9--9-------6-6-X6--6-------
G|-7-7-X7--7-------8-8-X8--8-------8-8-X8--8-------7-7-X7--7-------
D|-----------------------------------------------------------------
A|-----------------------------------------------------------------
E|-----------------------------------------------------------------
Guitar2:
e|-----------------------------------------------------------------
B|-----------------------------------------------------------------
G|-----------------------------------------------------------------
D|-----------------------------------------------------------------
A|---------------------------10--9-8---------8---6-5---------------
E|-7---------7--10-8----------------------------------------(4---6)*
*not played before chorus




CHORUS
[ Tab from: http://www.guitartabs.cc/tabs/m/maroon_5/this_love_tab_ver_3.html ]
Guitar1:
e|-8-8-X8--8-------6-6-X6----------8-8-X8--8-------6-6-X6----------
B|-8-8-X8--9-------6-6-X6----------8-8-X8--9-------6-6-X6----------
G|-8-8-X8--8-------7-7-X7----8-X8--8-8-X8--8-------7-7-X7----8--9--
D|-1010X10-10------8-8-X8----------1010X10-10------8-8-X8----------
A|-1010----8-------8-8-X8----6-----1010X10-8-------8-8-X8----6--7--
E|-8-8-------------6-6-X6----------8-8-X8----------6-6-X6----------
*these are 10's not 1's and 0's.


Guitar1:
e|-8-8-X8--8-------6-6-X6----------8-8-X8--8---8-------------------
B|-8-8-X8--9-------6-6-X6----------8-8-X8--10--10--1313X13-12------
G|-8-8-X8--8-------7-7-X7----8-X8--8-8-X8--8---8---1111X11-10------
D|-1010X10-10------8-8-X8----------1010X10-10--10--1313X13-12------
A|-1010----8-------8-8-X8----6-----1010----8---8---1111X11-10------
E|-8-8-------------6-6-X6----------8-8-----------------------------
Guitar2:
e|-----------------------------------------------------------------
B|-----------------------------------------------------------------
G|-----------------------------------------------------------------
D|-----------------------------------------------------------------
A|-----------------------------------------------------------------
E|-----------------------------------------------------------3---1/  


Guitar2:
e|-----------------------------------------------------------------
B|-----------------------------------------------------------------
G|-----------------------------------------------------------------
D|-----------------------------------------------------------------
A|---------------------------10--9-8---------8---6-5---------------
E|-7---------7--10-8----------------------------------------(4---6)*
*back to verse, not played before bridge


BRIDGE

e|-8---------------6-------------------------------8---------------
B|-9---------------8---------------12--------------8---------------
G|-8---------------7---------------10--------------8---------------
D|-10--------------8---------------12--------------10--------------
A|-8---------------6---------------10--------------10--------------
E|-------------------------------------------------8---------------

e|-8---------------6-----------------------------------------------
B|-9---------------8---------------12------------------------------
G|-8---------------7---------------10------------------------------
D|-10--------------8---------------12------------------------------
A|-8---------------6---------------10------------------------------
E|-----------------------------------------------------------------



"OUTRO," which is really just the repetition of the chorus, but

at one point the guitar1 chorus riff switches to this, and is played
until the song fades out. Not sure how to tab out the exact rhythm,
but here it is. At this point, the chords of the song are maintained
by the bass.

e|-----------------------------------------------------------------
B|-----------------------------------------------------------------
G|-8-8-X8--8---8-8-8-8-X8----8--8--8-8-X8--8---8-8-8-8-X8----8--8--
D|-----------------------------------------------------------------
A|-----------------------------------------------------------------
E|-----------------------------------------------------------------


Peace out.
Comments