Maroon 5 - This Love Chords & Tabs

 

This Love Chords & Tabs

Maroon 5 Chords & Tabs

Version: 1 Type: Tab 0 ratings
1 star 2 stars 3 stars 4 stars 5 stars
comments

This Love Tab

Maroon 5 This Love Tab

This website does contain the correct tonal requirements for the song, but some
of the chords are positioned incorrectly if the sound you want to achieve is the
sound on the record, then I suggest you play my way

INTRO, VERSE AND INTERLUDE CHORD PROGRESSIONS ARE THE SAME: G7,Cm,F#m7,G7. 

Part 1

E|---7--7--7--7----11--11--11--11----8--8--8--8----7--7--7--7--
B|---6--6--6--6----13--13--13--13----9--9--9--9----6--6--6--6--
G|---7--7--7--7----12--12--12--12----8--8--8--8----7--7--7--7--
D|---5--5--5--5----10--10--10--10----10-10-10-10---5--5--5--5--
A|-----------------------------------8--8--8--8----------------
E|-------------------------------------------------------------


The next chord progression is for the chorus and is: Cm,F#m7,A#,D#

Part 2
[ Tab from: http://www.guitartabs.cc/tabs/m/maroon_5/this_love_tab.html ]
E|---11--11----8--8----6--6----11--11--
B|---13--13----9--9----6--6----11--11--
G|---12--12----8--8----7--7----12--12--
D|---10--10----10-10---8--8----13--13--
A|-------------8--8--------------------
E|-------------------------------------


The next chord progression is for the bridge F#m7,D#,C

Part 3

For the bridge you'll need to let the chords play out a little longet than the
chorus and the verse. But you already knew that unless you are a deaf musician,
and quite frankly that would be a little redundant dont you think?

E|---8--------------
B|---9-----4-----5--
G|---8-----3-----5--
D|---10----5-----5--
A|---8-----6-----3--
E|------------------


So that's it, but I'll put it into a summary

Part 1 x 2 for the intro 
Part 1 x 2 for the first verse 
part 2 x 4 for the chorus
part 1 x 1 for the interlude 
part 1 x 2 for the second verse 
part 2 x 4 for the second chorus 
part 1 x 1 for the second interlude 
part 3 x 2 for the bridge 
part 2 x 4 for the last of the choruses 
part 2 x 2 for the ending
Comments