Maroon 5 - This Love Chords & Tabs

 

This Love Chords & Tabs

Maroon 5 Chords & Tabs

Version: 2 Type: Bass Tab 0 ratings
1 star 2 stars 3 stars 4 stars 5 stars
comments

This Love Bass Tab

   
-------------------------------------------------------------------------------
			     This Love - Maroon 5
-------------------------------------------------------------------------------

Tabbed By : Jwilli
e-mail: jamrobwill@msn.com

Tuning: A=440

Intro:

G|------------------|------------------|------------------|------------------|
D|------------------|------------------|------------------|------------------|
A|------------------|------------------|------------------|----------------1-|
E|------------------|--------------3-2-|1-----------------|-------------4----|
B|0-----------------|1-----------------|------------------|3-----------------|

G|------------------|------------------|------------------|------------------|
D|------------------|-------------5--4-|3------------3--1-|0-----------------|
A|2------------2--5-|3-----------------|------------------|----------------1-|
E|------------------|------------------|------------------|-------------4----|
B|------------------|------------------|------------------|------------------|

Verse: 1

I was so high I did not recognize

G|------------------|------------------|------------------|------------------|
D|------------------|-------------5--4-|3------------3--1-|0-----------------|
A|2------------2--5-|3-----------------|------------------|----------------1-|
E|------------------|------------------|------------------|-------------4----|
B|------------------|------------------|------------------|------------------|

Whispered goodbye and she got on a plane
G|------------------|------------------|------------------|------------------|
D|------------------|-------------5--4-|3------------3--1-|0-----------------|
A|2------------2--5-|3-----------------|------------------|------------------|
E|------------------|------------------|------------------|------------------|
B|------------------|------------------|------------------|------------------|


Chorus:

This love has taken its toll on me
G|------------------|-------------------|------------------|--------------------|
D|-----3---3-----1-1|-----3----------1-2|-----3---3-----1-1|-----3--------------|
A|3-3-3-----1-1-1---|3-3-3--3-2-1-1-1---|3-3-3-----1-1-1---|3-3-3---------------|
E|------------------|-------------------|------------------|--------1-3-4--4-3-1|
B|------------------|-------------------|------------------|--------------------|

Oh - Oh - Oh
G|------------------|------------------|------------------|------------------|
D|------------------|-------------5--4-|3------------3--1-|0-----------------|
A|2------------2--5-|3-----------------|------------------|----------------1-|
E|------------------|------------------|------------------|-------------4----|
B|------------------|------------------|------------------|------------------|

Verse: 2

I tried my best to feed her appetite
G|------------------|------------------|------------------|------------------|
D|------------------|-------------5--4-|3------------3--1-|0-----------------|
A|2-----------------|3-----------------|------------------|----------------1-|
E|------------------|------------------|------------------|-------------4----|
B|------------------|------------------|------------------|------------------|

Kept playing love like it was just a game
G|------------------|------------------|------------------|------------------|
D|------------------|-------------5--4-|3------------3--1-|0-----------------|
A|2-----------------|3-----------------|------------------|------------------|
E|------------------|------------------|------------------|------------------|
B|------------------|------------------|------------------|------------------|

Chorus:
[ Tab from: http://www.guitartabs.cc/tabs/m/maroon_5/this_love_btab_ver_2.html ]
This love has taken its toll on me
G|------------------|-------------------|------------------|--------------------|
D|-----3---3-----1-1|-----3----------1-2|-----3---3-----1-1|-----3--------------|
A|3-3-3-----1-1-1---|3-3-3--3-2-1-1-1---|3-3-3-----1-1-1---|3-3-3---------------|
E|------------------|-------------------|------------------|--------1-3-4--4-3-1|
B|------------------|-------------------|------------------|--------------------|

Oh - Oh - Oh
G|------------------|------------------|------------------|------------------|
D|------------------|-------------5--4-|3------------3--1-|0-----------------|
A|2------------2--5-|3-----------------|------------------|------------------|
E|------------------|------------------|------------------|------------------|
B|------------------|------------------|------------------|-------------3--3-|

Bridge:

I'll fix these broken things
G|------------------|------------------|------------------|------------------|
D|------------------|------------------|------------------|------------------|
A|------------------|------------------|------------------|------------------|
E|------------------|------------------|------------------|------------------|
B|6-----------6--6--|4-----------4--4--|0-----------0--0--|1-----------1--4--|

My pressure on her hips
G|------------------|------------------|------------------|----------------|
D|------------------|------------------|------------------|----------------|
A|------------------|------------------|------------------|----------------|
E|------------------|------------------|3-----------3--3--|3-3-3-3-3-3-3-3-|
B|6-----------6--6--|4-----------4--4--|------------------|----------------|

Chorus:

This love has taken its toll on me
G|------------------|-------------------|------------------|--------------------|
D|-----3---3-----1-1|-----3----------1-2|-----3---3-----1-1|-----3--------------|
A|3-3-3-----1-1-1---|3-3-3--3-2-1-1-1---|3-3-3-----1-1-1---|3-3-3-----------2-2-|
E|------------------|-------------------|------------------|--------1-3-4-4-----|
B|------------------|-------------------|------------------|--------------------|

This love has taken its toll on me
G|------------------|-------------------|------------------|--------------------|
D|-----3---3-----1-1|-----3----------1-2|-----3---3-----1-1|-----3--------------|
A|3-3-3-----1-1-1---|3-3-3--3-2-1-1-1---|3-3-3-----1-1-1---|3-3-3---------------|
E|------------------|-------------------|------------------|--------1-3-4--4-3-1|
B|------------------|-------------------|------------------|--------------------|

This love has taken its toll on me
G|------------------|-------------------|------------------|--------------------|
D|-----3---3-----1-1|-----3----------1-2|-----3---3-----1-1|-----3--------------|
A|3-3-3-----1-1-1---|3-3-3--3-2-1-1-1---|3-3-3-----1-1-1---|3-3-3---------------|
E|------------------|-------------------|------------------|--------1-3-4--4-3-1|
B|------------------|-------------------|------------------|--------------------|

This love has taken its toll on me
G|------------------|-------------------|------------------|--------------------|
D|-----3---3-----1-1|-----3----------1-2|-----3---3-----1-1|-----3--------------|
A|3-3-3-----1-1-1---|3-3-3--3-2-1-1-1---|3-3-3-----1-1-1---|3-3-3---------------|
E|------------------|-------------------|------------------|--------1-3-4--4-3-1|
B|------------------|-------------------|------------------|--------------------|

G|------------------|-------------------|------------------|--------------------|
D|-----3---3-----1-1|-----3----------1-2|-----3---3-----1-1|-----3--------------|
A|3-3-3-----1-1-1---|3-3-3--3-2-1-1-1---|3-3-3-----1-1-1---|3-3-3---------------|
E|------------------|-------------------|------------------|--------1-3-4--4-3-1|
B|------------------|-------------------|------------------|--------------------|

This song is all about the groove.
Enjoy!

| /  slide up
| \  slide down
| h  hammer-on
| p  pull-off
| ~  vibrato
| +  harmonic
| x  Mute note
Comments