Maroon 5 - This Love Chords & Tabs

 

This Love Chords & Tabs

Maroon 5 Chords & Tabs

Version: 1 Type: Bass Tab 0 ratings
1 star 2 stars 3 stars 4 stars 5 stars
comments

This Love Bass Tab

tabbed by: ulo (etitskoymalaki@yahoo.com)

song:  this love
band:  maroon 5
tuning: standard four string bass

intro: (2x)

|----------------------------------|
|------------5-4-3---3-1-0---------|
|-2--2-5-3---------------------1-2-|
|----------------------------4-----|

verse:

|----------------------------------|
|------------5-4-3---3-1-0---------|
|-2--2-5-3---------------------1-2-|
|----------------------------4-----|

|---------------------------------|
|------------5-4-3---3-1-0--------|
|-2--2-5-3---------------------1--|
|----------------------------4----|

chorus: (4x)
[ Tab from: http://www.guitartabs.cc/tabs/m/maroon_5/this_love_btab.html ]
|---------------------------------|
|---------3-3-x-3---------3-3-x-3-|
|-3-3-x-3---------1-1-x-1---------|
|---------------------------------|

repeat verse
repeat chorus

bridge:

|-------------------------------|
|-------------------------------|
|-8----6----2----3--5--6-8-6-10-|
|-------------------------------|

|---------------------------------|
|---------------------------------|
|-8----6----2----3-3-5-5-6-8-6-10-|
|---------------------------------|

repeat chorus till end

this is 99.9% correct. i might have screwed up in counting 
how many times each part is played. but thats ok...
its so easy to figure out.
Comments