Maroon 5 - This Love Acoustic Chords & Tabs

 

This Love Acoustic Chords & Tabs

Maroon 5 Chords & Tabs

Version: 1 Type: Bass Tab 0 ratings
1 star 2 stars 3 stars 4 stars 5 stars
comments

This Love Acoustic Bass Tab

Intro:
G ------------------------------------------------------------|
D --------------------------------0-------5--4--3-----3--1--0-|
A ---------------------1-2-----2-----3------------------------|
E -3-2-1--with piano-4----------------------------------------|



G ------------------------------------------------------------|
D ------------0-------5--4--3-----3--1--0---------------------|
A ---1-2---2-----3---------------------------------(3-55555)--|
E -4----------------------------------------------------------|x2


Chorus:
G ---------------------------------------------|
D --------------------------1-1--1-------------|
A --1/3-3--3-------321-1--1--------------------|
E -----------1-1--1----------------------------|

G ---------------------------------------------|
D --------------------------1-1--1-----1~-2~---|
A ----3-3--3---------1-1-1-------------------3-|
E -----------1-1--1----------------------------|

G ---------------------------------------------|
D --------------------------1-1--1-------------|
A ----3-3--3-------321-1--1--------------------|
E -----------1-1--1----------------------------|

G -----------------------------------------------|
D -----------------------------5--3--------------|
A ----3-3--3-------------------------2-----------|
E -----------1-1--134-4--4-3---------------------|


verse:
G ------------------------------------------------|
D ---------0-------5--4--3-----3--1--0------------|
A -----2-----3-------------------------------1--2-|
E ----------------------------------------4-------|

little pause
G -----------------------------------|
D -------5--4--3-----3--1--0---------|
A 3-----------------------------1--2-|
E ---------------------------4-------|


G ----------------------------------------------|
D ---------0-------5--4--3-----3--1--0----------|
A -----2-----3---------------------------3-5555-|
E ----------------------------------------------|


Chorus:
G ---------------------------------------------|
D --------------------------1-1--1-------------|
A ----3-3--3-------321-1--1--------------------|
E -----------1-1--1----------------------------|

G ---------------------------------------------|
D --------------------------1-1--1-----1~-2~---|
A ----3-3--3------3211-1-1-------------------3-|
E -----------1-1--1----------------------------|

G ---------------------------------------------|
D --------------------------1-1--1-------------|
A ----3-3--3-------321-1--1--------------------|
E -----------1-1--1----------------------------|
[ Tab from: http://www.guitartabs.cc/tabs/m/maroon_5/this_love_acoustic_btab.html ]
G ---------------------------------------------|
D ---------------------------------------------|
A ----3-3--3--------------------10--8----------|
E -----------1-1--134-4--4-3----------7/-------|


verse:
G -------------------------------------------|
D ----------------------------3--1--0--------|
A -----5----------------------------------55-|
E ---7---8/-------3-2-1----------------------|


Bridge:

G -----------------------------------------------|
D ------------------------------------1----------|
A -----------6---66---2~-----3~------------------|
E --1~--11--------------------------3---1~-------|

G ---------------------------------------------|
D ---------------------------------------------|
A ---------6-----------------------------------|
E --1--11-----3-3333333------------------------|

Chorus:
G ---------------------------------------------|
D --------------------------1-1--1-------------|
A ---1/3-3--3---------1-1--1-------------------|
E -----------1-1--1----------------------------|

G ---------------------------------------------|
D --------------------------1-1--1-----1~-2~---|
A ----3-3--3-------321-1-1-------------------3-|
E -----------1-1--1----------------------------|

G ---------------------------------------------|
D --------------------------1-1--1-------------|
A ----3-3--3-------321-1--1--------------------|
E -----------1-1--1----------------------------|

G -----------------------------------------------|
D -----------------------------5--3--------------|
A ----3-3--3-------------------------2-----------|
E -----------1-1--134-4--4-3---------------------| X 2




G ---------------------------------------------|
D --------------------------1-1--1-------------|
A ----3-3--3-------321-1--1--------------------|
E -----------1-1--1----------------------------|

G ---------------------------------------------|
D --------------------------1-1--1-----1~-2~---|
A ----3-3--3---------1-1-1-------------------3-|
E -----------1-1--1----------------------------|

G ---------------------------------------------|
D --------------------------1-1--1-------------|
A ----3-3--3-------321-1--1--------------------|
E -----------1-1--1----------------------------|

G ------------------------------------|
D -----------------------------5--3---|
A ----3-3--3--------------------------|
E -----------1-1--134-4--4-3----------|


G -----------------------------------------------|
D ----------------1-2---------------5--3--222~---|
A -3-3-------1-1------3-3------1-1---------------|
E ------1-1-----------------1-1------------------|



VIVA ECUADOR!!!
Tab by me: K.A.M. !!
Comments