Maroon 5 - The Sun Chords & Tabs

 

The Sun Chords & Tabs

Maroon 5 Chords & Tabs

Version: 2 Type: Bass Tab 0 ratings
1 star 2 stars 3 stars 4 stars 5 stars
comments

The Sun Bass Tab

Maroon 5 - The Sun

Bass Guitar
4 String (440)

Sorry I didn't make the tab shorter by just putting 2x and what have it.
But there are some parts which differ alot. This is my first tab and I reckon its fairly
accurate, please give it a rating.

Intro/Rift 1
G|--------------------------------------|
D|--------------------------------------|
A|---2h3-2h3-3-3/5-5---3h5---3h5----0---|
E|-5------------------------------------|

G|--------------------------------------|
D|--------------------------------------|
A|---2h3-2h3-3-3/5-5---3h5---3h5----0---|
E|-5------------------------------------|

Verse
  (Rift 2)
G|--------------------------------------|
D|--------------------------------------|
A|--2h3-2h3--3h5-3h5--3h5-3h5-0---------|
E|-5------------------------------------|

G|--------------------------------------|
D|--------------------------------------|
A|--2h3-2h3--3h5-3h5--3h5-3h5-0---------|
E|-5------------------------------------|
  
(Rift 1)
G|--------------------------------------|
D|--------------------------------------|
A|---2h3-2h3-3-3/5-5---3h5---3h5----0---|
E|-5------------------------------------|

G|--------------------------------------|
D|--------------------------------------|
A|---2h3-2h3-3-3/5-5---3h5---3h5----0---|
E|-5------------------------------------|

(Rift 3)
G|--------------------------------------|
D|--------------------------------------|
A|---2h3-2h3--3h5-3h5-------rest--------|
E|-5------------------------------------|

Chorus

G|--------------------------------------|
D|--------------------------------------|
A|--------2--3--3--0--0-----------------|
E|-1--1------------------3--3-----------|

G|--------------------------------------|
D|--------------------------------------|
A|--------2--3--3--0--0-----------------|
E|-1--1------------------3--3-----------|

G|--------------------------------------|
D|--------------------------------------|
A|--------2--3--3--0--0-----------------|
E|-1--1------------------3--3--1--1-----|

G|--------------------------------------|
D|--------------------------------------|
A|---5----------------------------------|
E|--------------0------------5----------|


Verse 2

G|--------------------------------------|
D|--------------------------------------|
A|---2h3-2h3-3-3/5-5---3h5---3h5----0---|
E|-5------------------------------------|

G|--------------------------------------|
D|--------------------------------------|
A|---2h3-2h3-3-3/5-5---3h5---3h5----0---|
E|-5------------------------------------|

G|--------------------------------------|
D|--------------------------------------|
A|--2h3-2h3--3h5-3h5--3h5-3h5-0---------|
E|-5------------------------------------|

G|--------------------------------------|
D|--------------------------------------|
A|--2h3-2h3--3h5-3h5--3h5-3h5-0-----0---|
E|-5------------------------------------|
[ Tab from: http://www.guitartabs.cc/tabs/m/maroon_5/the_sun_btab_ver_2.html ]
G|--------------------------------------|
D|--------------------------------------|
A|-----------------Rest-----------------|
E|--------------------------------------|

Chorus

G|--------------------------------------|
D|--------------------------------------|
A|5-------2--3--3--0--0-----------------|
E|-0-1-1-----------------3--3-----------|

G|--------------------------------------|
D|--------------------------------------|
A|--------2--3--3--0--0-----------------|
E|-1--1------------------3--3-----------|

G|--------------------------------------|
D|--------------------------------------|
A|--------2--3--3--0--0-----------------|
E|-1--1------------------3--3--1--1-----|

G|--------------------------------------|
D|--------------------------------------|
A|---5----------------------------------|
E|--------------0------------5----------|

Bridge

G|--------------------------------------|
D|--------------------------------------|
A|--2h3-2h3--3h5-3h5--3h5-3h5-0---------|
E|-5------------------------------------|

G|--------------------------------------|
D|--------------------------------------|
A|--2h3-2h3--3h5-3h5--3h5-3h5-0---------|
E|-5------------------------------------|

G|--------------------------------------|
D|--------------------------------------|
A|--2h3-2h3--3h5-3h5--3h5-3h5-0---------|
E|-5------------------------------------|

G|--------------------------------------|
D|--------------------------------------|
A|--2h3-2h3-----------------------------|
E|-5------------0---0-0--0-0----0-------|

Chorus

G|--------------------------------------|
D|--------------------------------------|
A|--------2--3--3--0--0-----------------|
E|-1--1------------------3--3-----------|

G|--------------------------------------|
D|--------------------------------------|
A|--------2--3--3--0--0-----------------|
E|-1--1------------------3--3-----------|

G|--------------------------------------|
D|--------------------------------------|
A|--------2--3--3--0--0-----------------|
E|-1--1------------------3--3--1--1-----|

G|--------------------------------------|
D|--------------------------------------|
A|---5-------------------5--------------|
E|----------0------1----------0-----5---|

End

G|--------------------------------------|
D|--------------------------------------|
A|--2h3-2h3--3h5-3h5--3h5-3h5-0---------|
E|-5------------------------------------|

G|--------------------------------------|
D|--------------------------------------|
A|--2h3-2h3--3h5-3h5--3h5-3h5-0---------|
E|-5------------------------------------|

G|--------------------------------------|
D|--------------------------------------|
A|--2h3-2h3--3h5-3h5--3h5-3h5-0---------|
E|-5------------------------------------|

G|--------------------------------------|
D|--------------------------------------|
A|--2h3-2h3--3h5-3h5--3h5-3h5-0---------|
E|-5------------------------------------|

Outro

G|--------------------------------------|
D|--------------------------------------|  Repeat until end
A|---2h3-2h3-3-3/5-5---3h5---3h5----0---|
E|-5------------------------------------|
Comments