Maroon 5 - The Sun Chords & Tabs

 

The Sun Chords & Tabs

Maroon 5 Chords & Tabs

Version: 1 Type: Bass Tab 0 ratings
1 star 2 stars 3 stars 4 stars 5 stars
comments

The Sun Bass Tab

Title: The sun
Artist: Maroon 5
Standard Tuning GDAE
Tabbed by: Coolerguy678910

Intro/Rift 1
G|--------------------------------------|
D|--------------------------------------|
A|---3h5-3h5-3-5--3/5-5--3h5-3h5-0------| 2x
E|-5------------------------------------|

Verse
  (Rift 2)
G|--------------------------------------|
D|--------------------------------------|
A|--3h5-3h5--3h5-3h5--3h5-3h5-0---------| 2x
E|-5------------------------------------|

  (Rift 1)
G|--------------------------------------|
D|--------------------------------------|
A|---3h5-3h5-3-5--3/5-5--3h5-3h5-0------| 2x
E|-5------------------------------------|

  (Rift 3)
G|--------------------------------------|
D|--------------------------------------|
A|---3h5-3h5--3h5-3h5--rest-------------| 1x
E|-5------------------------------------|
[ Tab from: http://www.guitartabs.cc/tabs/m/maroon_5/the_sun_btab.html ]
Chorus
G|--------------------------------------|
D|--------------------------------------|
A|-3-3----------------------------------| 3x
E|------3-3-3-3--5-5-5-5--0-0-0-0-------|

G|--------------------------------------|
D|--------------------------------------|
A|-3-3----------------------------------|
E|------3-3-3--5--------0---------------|
    hold the 5 and the 0
 
   (Rift 4)
G|--------------------------------------|
D|--------------------------------------|
A|---3h5-3h5----------------------------|1x
E|-5------------------------------------|


Intro/Rift 1-2x
Rift 2- 2x
Rift 1- 2x
Rift 3- 1x
Chorus- 1x
Rift 1- 2x
Rift 2- 2x
Rift 4- 2x
Chours- 1x
Rift 2- 4x
Rift 1- Fade Out

This is a easy song to learn, just play along with the music and it shouldn't
be that hard.

Please post corrections if you have any, and rate it.
Comments