Maroon 5 - Sweetest Goodbye Chords & Tabs

 

Sweetest Goodbye Chords & Tabs

Maroon 5 Chords & Tabs

Version: 4 Type: Tab 0 ratings
1 star 2 stars 3 stars 4 stars 5 stars
comments

Sweetest Goodbye Tab

Just FYI, this is my first tab.  It could probably use some improvement but I'm 
really proud of it.

Its for the main solo part.  I can't hear the jamming/vocal part clear enough to tab out.


e|-11~~~11~~~11~~~h14-p11--------------------11----11-10---------------|
B|------------------------------7-11-9----11----11---------------------|
G|--------------------------7-9----------------------------------------|
D|---------------------------------------------------------------------|
A|---------------------------------------------------------------------|
E|---------------------------------------------------------------------|

e|------------------14------14------14-----------------------------------|
B|14b    16-14b16-14b16---14b16---14b16-----14b16-14b16b14-11------------|
G|--------------------------------------------------------13-11----------|
D|--------------------------------------------------------------13-------|
A|-----------------------------------------------------------------------|
E|-----------------------------------------------------------------------|
[ Tab from: http://www.guitartabs.cc/tabs/m/maroon_5/sweetest_goodbye_tab_ver_4.html ]
e|---------------------------------------------------------------------|
B|---------------------------------------------------------------------|
G|------11----------11-11~~~-11-13-11-10-10-11-11-13-11-10-10-11-13----|
D|11-13----13-11-13----------------------------------------------------|
A|---------------------------------------------------------------------|
E|---------------------------------------------------------------------|

e|---------------------------------------------------------------14-14-|
B|--------------------------------------------9*b11b9b11----9/11-11-11-|
G|15~~~--13-11-13-11--------------------8--8-------------8-------------|
D|-------------------15-13-12------8-11--------------------------------|
A|------------------------------11-------------------------------------|
E|---------------------------------------------------------------------|

e|14-11-14-14-14-11----------------------------------------------------|
B|11----11-11-11----11-14-11-14-11-14----------------------------------|
G|---------------------------------------------------------------------|
D|---------------------------------------------------------------------|
A|---------------------------------------------------------------------|
E|---------------------------------------------------------------------|

At this point the whole band is jamming with vocals and its hard to make out the guitar part.

Enjoy!
Comments