Maroon 5 - Sweetest Goodbye Chords & Tabs

 

Sweetest Goodbye Chords & Tabs

Maroon 5 Chords & Tabs

Version: 2 Type: Tab 0 ratings
1 star 2 stars 3 stars 4 stars 5 stars
comments

Sweetest Goodbye Tab

-------------------------------------------------|
---------SWEETEST GOODBYE BY MAROON5 TAB---------|
-------------------------------------------------|


Here's the Tab i did... Well, maybe u will ask for some more details like
solos... Unhappiness, I'm not
a guitar player with a pretty good ear, I just like this song and figured
it out by myself to play to my girl... ;)

So, if u have any suggestions, comments or corrections about this poor tab,
send an e-mail to secretbox@ubbi.com.br


VERSES
[ Tab from: http://www.guitartabs.cc/tabs/m/maroon_5/sweetest_goodbye_tab_ver_2.html ]
e|-----------------------------------------|
B|-----------------------------------------|
G|----4---4---4---4-------6---6---6---6----|
D|------4---4---4-----------6---6---6------|
A|--------------------(4)------------------|
E|(4)--------------------------------------|

e|-----------------------------------------|
B|-----------------------------------------|
G|----6---6---6---6-------6---6---6---6----|
D|------4---4---4-----------4---4---4------|
A|--------------------(6)------------------|
E|(2)--------------------------------------|


CHORUSES

e|------------------------------------------------------------------|
B|-4-4--4--4--4--4--3-3--3--3--3--3--8-8--8--8--8--8--4-4--4--4--4--|
G|-4-4--4--4--4--4--3-3--3--3--3--3--9-9--9--9--9--9--3-3--3--3--3--|
D|-4-4--4--4--4--4--3-3--3--3--3--3--9-9--9--9--9--9--4-4--4--4--4--|
A|-2-2--2--2--2--2--1-1--1--1--1--1--7-7--7--7--7--7--3-3--3--3--3--|
E|------------------------------------------------------------------|


Cr4ck3R
Comments