Maroon 5 - Sweetest Goodbye Chords & Tabs

 

Sweetest Goodbye Chords & Tabs

Maroon 5 Chords & Tabs

Version: 1 Type: Bass Tab 1 rating
1 star 2 stars 3 stars 4 stars 5 stars
comments

Sweetest Goodbye Bass Tab

Sweetest Goodbye          by: Maroon 5

You need a 5 String to play like original song
This is very close 
If you find an error,leave a comment, I would like to know

Normal 5 string tuning

Verse

G ---------------------------------------------------
D ---------------------------------------------------
A --------------4-4--4-4-----------------------------           2x
E --4-4--4-4----------------2-2--2-2-----------------
B --------------------------------------4-4--4-4-----

G ---------------------------------------------------
D ---------------------------------------------------
A --------------4-4--4-4-----------------------------           1x
E --4-4--4-4----------------2-2--2-2---------------2h(4)
B --------------------------------------4-4--4-4-----

G ---------------------------------------------------
D ---------------------------------------------------
A ------------4-4--4-4-----------------3-3--3-3------           1x     
E --4-4--4-4-------------2-2--2-2--------------------
B ---------------------------------------------------



CHORUS

G ---------------------------------------------------?		 
D ---------------------------------------------------?
A --2--2--2-2--2--1-1--1-1---------------------------?          4x
E ---------------------------------------------------?
B --------------------------4-4--4-4--4-1-1--1-1----1?
[ Tab from: http://www.guitartabs.cc/tabs/m/maroon_5/sweetest_goodbye_btab.html ]
*the 3rd & 4th time there is a quick fill right at the end of the riff
you’ll have to figure it out



Verse

G ---------------------------------------------------
D ---------------------------------------------------
A --------------4-4--4-4-----------------------------           2x
E --4-4--4-4----------------2-2--2-2-----------------
B --------------------------------------4-4--4-4-----

G ---------------------------------------------------
D ---------------------------------------------------
A --------------4-4--4-4-----------------------------           1x
E --4-4--4-4----------------2-2--2-2---------------2h(4)
B --------------------------------------4-4--4-4-----

G ---------------------------------------------------
D ---------------------------------------------------
A ------------4-4--4-4-----------------3-3--3-3------           1x     
E --4-4--4-4-------------2-2--2-2--------------------
B ---------------------------------------------------




CHORUS

G ---------------------------------------------------?		 
D ---------------------------------------------------?
A --2--2--2-2--2--1-1--1-1---------------------------?          To End
E ---------------------------------------------------?
B --------------------------4-4--4-4--4-1-1--1-1----1?

	*the 1st and 2nd time are w/OUT the fill at the end of the riff
	each after that is with the fill.
Comments