Maroon 5 - Sunday Morning Chords & Tabs

 

Sunday Morning Chords & Tabs

Maroon 5 Chords & Tabs

Version: 2 Type: Bass Tab 0 ratings
1 star 2 stars 3 stars 4 stars 5 stars
comments

Sunday Morning Bass Tab

Intro
G----------------------------------------------------|
D--------5-5---7p5-----------------------------------|
A-3-3--3-----5----7--5-5------2--3-3---3h5-5--5h7-7--|
E------------------8------3-3------------------------|

G------------------------------------------------------------------|
D-------------------5-5--7p5---------------------------------------|
A-5-5------2--3-3--3----5---7--5-5------2--3-3--5h7-5h8-5h10-8-----|
E------3-3-------------------8------3-3----------------------------|

G------------------------------------------------------------------|
D-----------------0h5-5h7-7h10p7-----------------------------------|
A-5-5-----2--3-3------------------5-5-----2--3-3--5h7-5h8-7--------|
E-----3-3-----------------------------3-3------------------8-------|

Prechorus
G----------------------------------5--------------------|
D------------------------------5-7---7------------------|
A-5-5-----3-3----5-5-----3-3/7--------7-----------------|
E-----3-3------------3-3--------------------------------|

Chorus
G-----------------------------------------------------------------------|
D---------------------5-7-5---------------------------------------------|
A-5-5--8-----2--3-3-/7-----7---5-5--8-----2-3-3-3h5-5-5h7-7-7h8-7-------|
E--------3-3----------------8---------3-3-------------------------------|

G---------------------5-7-5-------------------------------------------|
D------------------5/7-----7------------------------------------------|
A-5-5--8----2--3-3----------7---5-5--8----2-3-3~----5(mute)-----------|
E--------3-3--------------------------3-3-----------------------------|

Piano break

then back to verse
G-----------------------------------------------------------------------|
D----------------------------------------------------5-5--7p5-----------|
A-5-5------2--3-3--3--5h7-7-7h8-8---5-5-----2--3-3--3----5---7----------|
E------3-3------------------------------3-3-------------------8---------|

G----------------------------------------------|
D-------------------------5-7-5----------------|
A-5-5------2--3-3--5-5--7----------------------|
E------3-3-------------------------------------|

2nd chorus

G---------------------------------------------------------------------------|
D---------------------5-7-5-----------------------5-7-5---------------------|
A-5-5--8-----2--3-3-/7-----7---5-5--8-----2-3-3-/7-----7--------------------|
E--------3-3----------------8---------3-3---------------8-------------------|

G------------------------------------------------------|
D------------------------------------------------------|
A-5-5--8----2--3-3-3h5-5-5h7-7-7h8-7--5-5--8-----2-----|
E--------3-3---------------------------------3-3-------|

interlude

[ Tab from: http://www.guitartabs.cc/tabs/m/maroon_5/sunday_morning_btab_ver_2.html ]
G------------------------------------------------|
D---0h1h2----------------------------------------|
A-3-------2p1p0--2-3---2-3---2-3-------------3---|
E-------------------3-----2-----1---1-3---3h5----|

G------------------------------------------------|
D---0h1h2----------------------------------------|
A-3-------2p1p0--2-3---2-3---2-3----------3----4-|
E-------------------3-----2-----1---1-3----------|

bridge

G-------------------------5/7-5---------------------------7-5----------------|
D---------------------5-7-------7----------------------5-7---7---------------|
A-5-5-8-------2-3-3/7-------------7-5-5-8-------2-3-3/7-------7--------------|
E-------5-3-5-----------------------------5-3-5------------------------------|

G----------------------7/9-7-5----------------------------------|
D-------------------5-7-------7---------------------------------|
A-5-5-8-----2-3-3/7-------------5-5-8---2-3-3--5-5-7-7----------|
E------5-3-5-------------------------3-3------------------------|

G----------7-5-4------5/7-5---------5-7-5-4------5/7-5------------|
D-------7-5----------5-----7-------7-5----------5-----7-----------|
A-5-5-8---------3-5-7-------7---5-8--------3-5-7-------7----------|
E-----------------------------------------------------------------|

G----------7------5-7-9-12-9-7---------7----------------------|
D-----7-5~--7--5/7----------------7-55-------------5-7-5------|
A-5~-8-------3----------------55-8------2h3-3--55-7-----------|
E-------------------------------------------------------------|

Then chorus ending..just play the chorus 4 times..im tired of
listening and tabbing..the bassist plays the same scale over
and over again and he improvised here and there..if u still
wanna know,here it is

                    improvise here             follow this
G-----------------------------------------------------------------------|
D---------------------5-7-5---------------------------------------------|   2x
A-5-5--8-----2--3-3-/7-----7---5-5--8-----2-3-3-3h5-5-5h7-7-7h8-7-------|
E--------3-3----------------8---------3-3-------------------------------|
                      improvise here          not the same,improvise
G-----------------------------------------------------------------------|
D---------------------5-7-5---------------------------------------------|   2x
A-5-5--8-----2--3-3-/7-----7---5-5--8-----2-3-3-3h5-5-5h7-7-7h8-7-------|
E--------3-3----------------8---------3-3-------------------------------|


and after that,comes the ending...
G-------------------------------------------------|
D---0h1h2-----------------------------------------|
A-3-------2p1p0--2-3---2-3---2-3-------------3----|
E-------------------3-----2-----1---1-3---3h5-----|

G-------------------------------------------------|
D---0h1h2-----------------------------------------|
A-3-------2p1p0--2-3---2-3---2-3------------3-----|  ends with C
E-------------------3-----2-----1---1-2-3---------|
               tempo slows down here
Comments