Maroon 5 - Sunday Morning Chords & Tabs

 

Sunday Morning Chords & Tabs

Maroon 5 Chords & Tabs

Version: 1 Type: Bass Tab 0 ratings
1 star 2 stars 3 stars 4 stars 5 stars
comments

Sunday Morning Bass Tab

Author: David Smith (age 12)
Email: selfish_hobo@hotmail.com

Intro...

G--------------7-----------12----------------------------------------|
D-----------------------------------------------10-------------------|
A--------------------------------------------------------------------|   x3
E--------------------------------------------------------------------|

Main Part...    I suggest making impro here, sonunds better if you do..

G------------------------------------------------------------------|
D--------------------------5---------------------------------------|   X19
A-------5-----------------------------------3----------------------|
E------------------------------------------------------------------|

Tricky Part

G---------------------------------------------------------------------------|
D---------------------------------------------------------------------------|
A------3------6-7-----------3---2----1--------3--2-------3--2-------3--2----|
E--------------------------------------------------3-----------2----------1-|
[ Tab from: http://www.guitartabs.cc/tabs/m/maroon_5/sunday_morning_btab.html ]
G---------------------------------------------------------------------------|
D---------------------------------------------------------------------------|
A--------------------------------------------0----h3----0-------------------|
E---------1-----------3----------------3---------------------3--------------|

  2nd Time....

G---------------------------------------------------------------------------|
D---------------------------------------------------------------------------|
A------3------6-7-----------3---2----1--------3--2-------3--2-------3--2----|
E--------------------------------------------------3-----------2----------1-|

  2nd Ending....

G---------------------------------------------------------------------------|
D---------------------------------------------------------------------------|
A-------------------------------------------3------------------7------------|
E---------1-----------3-----------------------------------------------------|

      Main Part....     Again Use Impro....

G------------------------------------------------------------------|
D------------------------5-----------------------------------------|
A-------5-----------------------------------3----------------------|     X18
E------------------------------------------------------------------|

This might not be perfect but I didn't really know if there were any tuning tweaks (if 
tuned down) or they had a 5 string, so I made this all up from listening, took me a while 
hours),
Author: David Smith (age 12)
Comments