Maroon 5 - Shiver Chords & Tabs

 

Shiver Chords & Tabs

Maroon 5 Chords & Tabs

Version: 2 Type: Tab

Shiver Tab

   
-------------------------------------------------------------------------------
			     Shiver - Maroon 5
-------------------------------------------------------------------------------
Tabbed by:  Ross

I found a lot of requests for this solo, so here it is, enjoy.  Oh, and please
take the time to rate it.  Any suggestions are also welcome if you don't think
its a five!


Tuning:	Standard
Key:		E-Minor: Lydian Mode (just means there is a #4 instead of a 4)
Tone:		Single Coil Bridge Pickup, high gain distortion, high treble

1:52
e|---------------------------------------------------------------------------|
B|-------15(b17)~~~~---------------------------------------------------------|
G|-------------------------------------14(b16)r14p12--14(b16)~~--------------|
D|---------------------------------------------------------------------------|
A|---------------------------------------------------------------------------|
E|---------------------------------------------------------------------------|

1:57
e|-----15b17----14-12-14-15(b15.5)r15--12--12--------------------------------|
B|----x----------------------------------15--12h15p12---15-------------------|
G|---x---------------------------------------------------14b16~~r14p12-14b16-|
D|--x----(sweep)----------------------|--------------|-----------------------|
A|------------------------------------|play this fast|-----------------------|
E|---------------------------------------------------------------------------|
[ Tab from: http://www.guitartabs.cc/tabs/m/maroon_5/shiver_tab_ver_2.html ]
2:03
e|-------17(b19)-r17p15----15------------------------------------------------|
B|----------------------17----17~~~~~~~~~~~--------17(b19)---17-17-17-17-17\-|
G|--/14------------------------------------------------------16-16-16-16-16\-|
D|----------------------------(heavy vibrato)--------------------------------|
A|---------------------------------------------------------------------------|
E|---------------------------------------------------------------------------|

2:08
e|------12-------------------------------------------------------------------|
B|--------------------------10-11-10-11(b12)~~-------------------------------|
G|---------14(b15.5)~--------------------------------------------------------|
D|---------------------------------------------------------------------------|
A|---------------------------------------------------------------------------|
E|---------------------------------------------------------------------------|

2:11
e|---------------15------------------------15--17(b19)r18(b19.5)~r17\--------|
B|--------15------------17p15-17p15---(17)-----------------------------------|
G|-----16---16---------------------------------------------------------------|
D|--------------------------------------------|double bend, but only |-------|
A|--------------------------------------------|return halfway between|-------|
E|---------------------------------------------------------------------------|


| b  bend note
| r  return (unbend)
| /  slide up
| \  slide down
| h  hammer-on
| p  pull-off
| ~  vibrato
| +  harmonic
| x  Mute note
===============================================================================