Maroon 5 - Shiver Chords & Tabs

 

Shiver Chords & Tabs

Maroon 5 Chords & Tabs

Version: 1 Type: Tab 0 ratings
1 star 2 stars 3 stars 4 stars 5 stars
comments

Shiver Tab

   
Artist:  Maroon 5
Song:  Shiver
Album:  Songs About Jane 
Tabbed by:  Andy Lytwynec
Email: abl26@cornell.edu

Play with medium distortion, high contour, full treble and bass,
and a cruch pedal effect helps.

Intro guitar thingy  (pops in again after chorus):
e--------------------------------------------------------------------------
b---------8^7^5\4\5^7-8-7-5-4-5-7-------8^7^5\4\5^7-8-7-5-4-5--------------
g--------------------------------------------------------------------------
d--------------------------------------------------------------------------
a--------------------------------------------------------------------------
e--------------------------------------------------------------------------

e--------------------------------------------------------------------------
b---------8^7^5\4\5^7-8-7-5-4-5-7-------8^7^5\4\5^7-8-7-5-4----------------
g-----------------------------------------------------------4--------------
d--------------------------------------------------------------------------
a--------------------------------------------------------------------------
e--------------------------------------------------------------------------

[ Tab from: http://www.guitartabs.cc/tabs/m/maroon_5/shiver_tab.html ]
Verse:
      Am           Em           Am          B
e-----5--5--5------7--7--7------5--5--5-----7--7--7---------------------
b-----5--5--5------8--8--8------5--5--5-----7--7--7---------------------
g-----5--5--5------9--9--9------5--5--5-----8--8--8-----( 2x )----------
d-----7--7--7------9--9--9------7--7--7-----9--9--9---------------------
a-----7--7--7------7--7--7------7--7--7-----9--9--9---------------------
e-----5--5--5-------------------5--5--5-----7--7--7---------------------


Chorus:
e--------------------------------------------------------------------------
b--------------------------------------------------------------------------
g---9--12--16---16-16-14-14-12-12---------9---12---16---14--12\14-14-12\14-
d---------------------------------( 2x )-----------------------------------
a---7--10--14---14-14-12-12-10-10---------7---10---14---12--10\12-12-12\14-
e--------------------------------------------------------------------------


e------------------------------
b------------------------------
g---16---14-14-12-12-----------  Repeat from Chorus beginning
d------------------------------
a---14---12-12-10-10-----------
e------------------------------


Sorry no Solo for this...if you feel like tabbing it out more power to ya,
but it basically just plays over the verse chords. Email me any corrections, etc.
Comments