Maroon 5 - She Will Be Loved Chords & Tabs

 

She Will Be Loved Chords & Tabs

Maroon 5 Chords & Tabs

Version: 6 Type: Tab 0 ratings
1 star 2 stars 3 stars 4 stars 5 stars
comments

She Will Be Loved Tab

   
-------------------------------------------------------------------------------
			     She Will Be Loved - Maroon 5
-------------------------------------------------------------------------------
Tabbed by: Nightfire
Email: trunks400062@hotmail.com
------------------------------------------------------------------------------- 
This is my first tab on this website. This sounds just like the actual song, and I've
made sure of it. (Play this with the song and compare it.)

Tuning: Standard
===============================================================================
This song is in 4/4 time, so to make this super accurate,I made this tab to where
every hyphen(-)represents a half beat, and two make a whole beat, and so on.(Every
(|) represents end of measure)
-------------------------------------------------------------------------------
Intro/verse(x5,come in on beat 2)    Chorus(x3)
e|--------|--------|--------|--------||--------|--------|--------|--------|
B|--------|--------|-8------|--------||--------|--------|--------|--------|
G|--8888--|-7-7---7|--8888--|-7-7---7||88888888|33333333|55555555|--------|
D|--------|-----8--|--------|-----8--||88888888|33333333|55555555|66666666|
A|--------|--------|--------|--------||66666666|11111111|33333333|66666666|
E|--------|--------|--------|--------||--------|--------|--------|44444444|
  1 2 3 4  1 2 3 4  1 2 3 4  1 2 3 4   1 2 3 4  1 2 3 4  1 2 3 4  1 2 3 4  

1st time post-chorus
e|--------|
B|--------|
G|6-------|
D|6-REST--|
A|4-------|
E|--------|
  1 2 3 4

Verse(x4)

Chorus(x4)
[ Tab from: http://www.guitartabs.cc/tabs/m/maroon_5/she_will_be_loved_tab_ver_6.html ]
Bridge
e|--------|--------|--------|--------|--------|--------|--------|--------|
B|--------|--------|--------|--------|--------|--------|--------|--------|
G|55555555|33333333|--------|33333333|55555555|33333333|--------|33333333|
D|55555555|33333333|66666666|33333333|55555555|33333333|66666666|33333333|
A|33333333|11111111|66666666|11111111|33333333|11111111|66666666|11111111|
E|--------|--------|44444444|--------|--------|--------|44444444|--------|
  1 2 3 4  1 2 3 4  1 2 3 4  1 2 3 4  1 2 3 4  1 2 3 4  1 2 3 4  1 2 3 4
Post-bridge
e|--------|--------|--------|--------|
B|--------|--------|-8------|--------|
G|--8888--|-7-7---7|--8888--|--------|
D|--------|-----8--|-------8|--REST--|
A|--------|--------|-------x|--------|
E|--------|--------|-------6|--------|
  1 2 3 4  1 2 3 4  1 2 3 4  1 2 3 4   

Chorus(x6)end on:
e|-|
B|-|
G|8|
D|8|
A|6|
e|-|
-------------------------------------------------------------------------------
Notes: The verse I tabbed is correct,the bass part is just not there. But if you
want an alternate way that has a bass part and is still correct, here you go:

Verse
e|--------|--------|--------|--------|
B|--------|--------|-8------|--------|
G|--8888--|-7-7---7|--8888--|-7-7---7|
D|--------|-----8--|--------|-----8--|
A|--------|--------|--------|--------|
E|8------6|--------|8------6|--------|
  1 2 3 4  1 2 3 4  1 2 3 4  1 2 3 4   

Post-bridge
e|--------|--------|--------|--------|
B|--------|--------|-8------|--------|
G|--8888--|-7-7---7|--8888--|--------|
D|--------|-----8--|-------8|--REST--|
A|--------|--------|-------x|--------|
E|8------6|--------|8------6|--------|
  1 2 3 4  1 2 3 4  1 2 3 4  1 2 3 4   

Omit the(E string, 8 frets)if you want to. I'll try to post a correct bass part soon.
===============================================================================
Comments