Maroon 5 - She Will Be Loved Chords & Tabs

 

She Will Be Loved Chords & Tabs

Maroon 5 Chords & Tabs

Version: 7 Type: Bass Tab 0 ratings
1 star 2 stars 3 stars 4 stars 5 stars
comments

She Will Be Loved Bass Tab

   
Band: Maroon 5
Song: She Will Be Loved
Album: Songs About Jane
Tabbed by: sprooties
E-mail: aquarius_26thjanuary@hotmail.com

Tuning: Standard E-A-D-G

| /  slide up
| \  slide down
| h  hammer-on
| p  pull-off
| ~  vibrato
| +  harmonic
| x  Mute note

Guitar intro

Verse
G |---------------------------|
D |----3/5-5/10-10--8---------|
A |-3-----------------8-------|
E |---------------------6-6-6-| x 3

G |---------------------------|
D |----3/5-5/10-10--8---------|
A |-3-----------------8-------|
E |---------------------66666-|

Pre-chorus
G |----------------------------------------------------------------------------------------|
D |----------------------------------------------------------------------------------------|
A |-66666666---------------------------66666666-------------------11.11.11.11.11.11.11.11--|
E |---------66666666-88888888-66666668----------66666666-88888888--------------------------|
[ Tab from: http://www.guitartabs.cc/tabs/m/maroon_5/she_will_be_loved_btab_ver_7.html ]
Chorus
G |---------------------------------------|
D |---------------------------------------|
A |-6-66666-------------------6-----------|
E |---------46-66666-78-88888---44-444-44-|

Repeat verse

Repeat pre-chorus

Chorus
G |--------------------------------------|
D |--------------------------------------|
A |-6-66666-------------------6----------|
E |---------46-66666-78-88888---4--444-4-| x 2

Bridge
G |---------------------------|
D |----3/5-5/10-10--8---------|
A |-3-----------------8-------|
E |---------------------6-6-6-| x 4

G |---|
D |---|
A |---|
E |-4-|

Repeat pre-chorus

Ending
G |---------------------------------------|
D |---------------------------------------|
A |-6--6-66-------------------6-----------|
E |---------46-66666-78-88888---6--6666-8-|

G |---------------------------------------|
D |---------------------------------------|
A |-6--6666-------------------6-----------|
E |---------46-66666-78-88888---4--4444-8-|


G |---------------------------------------|
D |---------------------------------------|
A |-6--6-66-------------------6-----------|
E |---------46-66666-78-88888---6--6666-8-|

G |-------------------------------------|
D |-------------------------------------|
A |-6-66666----------------65-----------|
E |---------46-66666-78-888--6444444444-|
Comments